Song name
# A B C D E F G H I J K L M N O P Q R S T U V W X Y Z

Misc Unsigned Bands - Alex Callais - Spontanious tab

Help us improve GuitareTab! Take a short survey!
This is all I could come up with.
Tuning: Standard
Intro (same for verse, but I don't know the chorus)

e|-------------------------------------------------------------------------|
B|-------------------------------------------------------------------------|
G|-------------2---------------2---------------2---------------2-----------|
D|-----2---2-------2---2---2-------2---0---0-------2---0---2-------2-------|
A|-------------------------------------------------------------------------|
E|-------------------------------------------------------------------------|



e|-------------------------------------------------------------------------|
B|-------------------------------------------------2-----------------------|
G|-------------2---------------2---------------2-------2-------2-----------|
D|---------2-------2-------2-------2---0---2---------------2-------0-------|
A|-----4---------------4---------------------------------------------------|
E|-------------------------------------------------------------------------|



e|---------------------------------|
B|-------------2-------------------|
G|---------2-------2-------2-------|
D|-----2---------------2-----------|
A|---------------------------------|
E|---------------------------------|

Related for Alex Callais - Spontanious tab