Song name
# A B C D E F G H I J K L M N O P Q R S T U V W X Y Z

Misc Unsigned Bands - Robert Taylor - Free Ham tab

----------------------------------------------------------------------------
			     Free Ham - Upon The Plagues
----------------------------------------------------------------------------
Tabbed by:josh/guitar

Tuning: Drop A# (A# F A# D# G C)

 C|------------------------------------------------------------------------|
 G|------------------------------------4-----4----------4-4-4-4-4-4--------|
D#|-----7-------7----------------------7-----7----------7-7-7-7-7-7--------|
A#|-----------------3-2-0--5-3-2-------------------------------------------|
 F|-----------------3-2-0--5-3-2-------------------------------------------|
A#|-0-0-----0-0-----3-2-0--5-3-2---0-0---0-0----0-0-0-0--------------------|

Tap to rate this tab
# A B C D E F G H I J K L M N O P Q R S T U V W X Y Z