Song name
# A B C D E F G H I J K L M N O P Q R S T U V W X Y Z

Misc Unsigned Bands - Davedays - 8 Years Apart tab

                                      ***********************
                                           8 Years Apart
                                      ***********************

Tuning is in Dropped D
(Low E is tuned one step down to D, and the B string is tuned to an A which is one step 
from B)
The song can also be played with regular/standard tuned A, D, E, and F# Chords.


E|-0--0--0--0--| (thinest)
A|-0--0--0--0--|
G|-2--2--2--1--|
D|-2--0--4--2--|
A|-0--0--4--2--|
D|----0--------| (fattest)
( A, D, F#,E)

Begining/Verse/Chorus/Ending

"We're 8 years apart..."
E|--0-0-0-0-0-0-0-0--0-0-0-0-0-0-0-0--0-0-0-0-0-0-0-0--0-0-0-0-0-0-0-0---|
A|--0-0-0-0-0-0-0-0--0-0-0-0-0-0-0-0--0-0-0-0-0-0-0-0--0-0-0-0-0-0-0-0---|
G|--2-2-2-2-2-2-2-2--2-2-2-2-2-2-2-2--2-2-2-2-2-2-2-2--2-2-2-2-2-2-2-2---|
D|--2-2-2-2-2-2-2-2--0-0-0-0-0-0-0-0--2-2-2-2-2-2-2-2--0-0-0-0-0-0-0-0---|
A|--0-0-0-0-0-0-0-0--0-0-0-0-0-0-0-0--0-0-0-0-0-0-0-0--0-0-0-0-0-0-0-0---|
D|-------------------0-0-0-0-0-0-0-0-------------------0-0-0-0-0-0-0-0---| x2

Pre Chorus

"You're leading me on..."
E|--0-0-0-0-0-0-0-0--0-0-0-0-0-0-0-0--0-0-0-0-0-0-0-0--0-0-0-0-0-0-0-0---|
A|--0-0-0-0-0-0-0-0--0-0-0-0-0-0-0-0--0-0-0-0-0-0-0-0--0-0-0-0-0-0-0-0---|
G|--2-2-2-2-1-1-1-1--2-2-2-2-2-2-2-2--2-2-2-2-1-1-1-1--2-2-2-2-2-2-2-2---|
D|--4-4-4-4-2-2-2-2--0-0-0-0-0-0-0-0--4-4-4-4-2-2-2-2--0-0-0-0-0-0-0-0---|
A|--4-4-4-4-2-2-2-2--0-0-0-0-0-0-0-0--4-4-4-4-2-2-2-2--0-0-0-0-0-0-0-0---|
D|-------------------0-0-0-0-0-0-0-0-------------------0-0-0-0-0-0-0-0---|

The song can also be played with regular A, D, E, and F# Chords. This is just how I play 
on my acoustic.
Tap to rate this tab
 
# A B C D E F G H I J K L M N O P Q R S T U V W X Y Z