Song name
# A B C D E F G H I J K L M N O P Q R S T U V W X Y Z

Misc Unsigned Bands - Juan Son - I Want You To Want Me tab

Help us improve GuitareTab! Take a short survey!
THIS IS MY VERY FIRST TAB, SO ITS NOT 100% ACCURATE
BUT I HOPE YOU LIKE IT. ANY COMMENT TO : LOKO4YA_ILA@HOTMAIL.COM


INTRO

|--------------------------------------------|
|--------------------------------------------|
|--------------------------------------------|
|-7-7-7-7-7--5-5-5-5--12-12-12-12--7-7-7-7---|
|-7-7-7-7-7--5-5-5-5--12-12-12-12--7-7-7-7---|
|-5-5-5-5-5--3-3-3-3--10-10-10-10--5-5-5-5---|

RIFF 1


|---------------------------------------------------------------|
|---------------------------------------------------------------|
|---------------------------------------------------------------|
|-7-7-7-7-7--6-6-6-6--4-4-4-4--12-12-12-12--14-14-14--7-7-7-7---|
|-7-7-7-7-7--6-6-6-6--4-4-4-4--12-12-12-12--14-14-14--7-7-7-7---|
|-5-5-5-5-5--4-4-4-4--2-2-2-2--10-10-10-10--12-12-12--5-5-5-5---|

  i want you          i need   i'd love you           i'm beggin
  to want me          you to   to love me             you to beg
                      need me                         me

|-------------------------------------------|
|-------------------------------------------|
|-------------------------------------------|
|-4-4-4-4--12-12-12-12--14-14-14--7-7-7-7---|
|-4-4-4-4--12-12-12-12--14-14-14--7-7-7-7---|
|-2-2-2-2--10-10-10-10--12-12-12--5-5-5-5---|

  i want   i need you             id love you
  you to   to need me             to love me
  want me


RIFF 2

|------------------------------------------------------------|
|------------------------------------------------------------|
|------------8-8-8-8-8---------------------------------------|
|--5-5-5-5---9-9-9-9-9---4-4-4-4----11-11-11-11--------------|
|--5-5-5-5---9-9-9-9-9---4-4-4-4----11-11-11-11--------------|
|--3-3-3-3---7-7-7-7-7---2-2-2-2----9--9--9--9---------------|
 i'll shine  ...shoes    put on a   ...shirt
 up the old              brand new
 brown ...               ...


|------------------------------------------------|
|------------------------------------------------|
|--------------8-8-8-8-8-------------------------|
|--5-5-5-5-----9-9-9-9-9---5-5-5-5---4-4-4-4-----|
|--5-5-5-5-----9-9-9-9-9---5-5-5-5---4-4-4-4-----|
|--3-3-3-3-----7-7-7-7-7---3-3-3-3---2-2-2-2-----|
   i'll get    ...work     if you    ... that
   early                   say ...   you love
   from ...                          me

PRECORO

  PM----------------|   PM----------------|   PM----------------|   PM-----------------------|
|--------------------------------------------------------------------------------------------|
|--------------------------------------------------------------------------------------------|
|--------------------------------------------------------------------------------------------|
|-------------------------------------------------------------------------------12-12-12-12--|
|-------------------------------------------------------------------------------12-12-12-12--|
|-5-5-5-5-5-5-5-5-5-5---0-0-0-0-0-0-0-0-0-0---2-2-2-2-2-2-2-2-2-2---10-10-10-10-10-10-10-10--|
  didn't I, didn't I    cryin' ... ohhh ...   didn't I, didn't I    ... cryin'
  didn't I, see you..                         didn't I, see you..

CORO

|------------------------------------------------------------------------------------------------|
|------------------------------------------------------------------------------------------------|
|------------------------------------------------------------------------------------------------|
|-7-7-7-7-7-7-7-7-7-7---2-2-2-2-2-2-2-2-2-2---4-4-4-4-4-4-4-4-4-4---12-12-12-12-12-12-12-12------|
|-7-7-7-7-7-7-7-7-7-7---2-2-2-2-2-2-2-2-2-2---4-4-4-4-4-4-4-4-4-4---12-12-12-12-12-12-12-12------|
|-5-5-5-5-5-5-5-5-5-5---0-0-0-0-0-0-0-0-0-0---2-2-2-2-2-2-2-2-2-2---10-10-10-10-10-10-10-10------|
  Feelin all alone      dyin' ... ohhh ...    didn't I, didn't I    ... cryin'
  without a friend,                           didn't I, see you..
  you know you feel
  like ....


RIFF 1


|---------------------------------------------------------------|
|---------------------------------------------------------------|
|---------------------------------------------------------------|
|-7-7-7-7-7--6-6-6-6--4-4-4-4--12-12-12-12--14-14-14--7-7-7-7---|
|-7-7-7-7-7--6-6-6-6--4-4-4-4--12-12-12-12--14-14-14--7-7-7-7---|
|-5-5-5-5-5--4-4-4-4--2-2-2-2--10-10-10-10--12-12-12--5-5-5-5---|

  i want you          i need   i'd love you           i'm beggin
  to want me          you to   to love me             you to beg
                      need me                         me


RIFF 2

|------------------------------------------------------------|
|------------------------------------------------------------|
|------------8-8-8-8-8---------------------------------------|
|--5-5-5-5---9-9-9-9-9---4-4-4-4----11-11-11-11--------------|
|--5-5-5-5---9-9-9-9-9---4-4-4-4----11-11-11-11--------------|
|--3-3-3-3---7-7-7-7-7---2-2-2-2----9--9--9--9---------------|
 i'll shine  ...shoes    put on a   ...shirt
 up the old              brand new
 brown ...               ...


|------------------------------------------------|
|------------------------------------------------|
|--------------8-8-8-8-8-------------------------|
|--5-5-5-5-----9-9-9-9-9---5-5-5-5---4-4-4-4-----|
|--5-5-5-5-----9-9-9-9-9---5-5-5-5---4-4-4-4-----|
|--3-3-3-3-----7-7-7-7-7---3-3-3-3---2-2-2-2-----|
   i'll get    ...work     if you    ... that
   early                   say ...   you love
   from ...                          me

PRECORO

  PM----------------|   PM----------------|   PM----------------|   PM-----------------------|
|--------------------------------------------------------------------------------------------|
|--------------------------------------------------------------------------------------------|
|--------------------------------------------------------------------------------------------|
|-------------------------------------------------------------------------------12-12-12-12--|
|-------------------------------------------------------------------------------12-12-12-12--|
|-5-5-5-5-5-5-5-5-5-5---0-0-0-0-0-0-0-0-0-0---2-2-2-2-2-2-2-2-2-2---10-10-10-10-10-10-10-10--|
  didn't I, didn't I    cryin' ... ohhh ...   didn't I, didn't I    ... cryin'
  didn't I, see you..                         didn't I, see you..

CORO

|------------------------------------------------------------------------------------------------|
|------------------------------------------------------------------------------------------------|
|------------------------------------------------------------------------------------------------|
|-7-7-7-7-7-7-7-7-7-7---2-2-2-2-2-2-2-2-2-2---4-4-4-4-4-4-4-4-4-4---12-12-12-12-12-12-12-12------|
|-7-7-7-7-7-7-7-7-7-7---2-2-2-2-2-2-2-2-2-2---4-4-4-4-4-4-4-4-4-4---12-12-12-12-12-12-12-12------|
|-5-5-5-5-5-5-5-5-5-5---0-0-0-0-0-0-0-0-0-0---2-2-2-2-2-2-2-2-2-2---10-10-10-10-10-10-10-10------|
  Feelin all alone      dyin' ... ohhh ...    didn't I, didn't I    ... cryin'
  without a friend,                           didn't I, see you..
  you know you feel
  like ....

SOLO 1

|------------------------------------------------------------------------------------------------|
|------------------------------------------------------------------------------------------------|
|------------------------------------------------------------------------------------------------|
|-7-7-7-7-7-7-7-7-7-7---2-2-2-2-2-2-2-2-2-2---4-4-4-4-4-4-4-4-4-4---12-12-12-12-12-12-12-12------|
|-7-7-7-7-7-7-7-7-7-7---2-2-2-2-2-2-2-2-2-2---4-4-4-4-4-4-4-4-4-4---12-12-12-12-12-12-12-12------|
|-5-5-5-5-5-5-5-5-5-5---0-0-0-0-0-0-0-0-0-0---2-2-2-2-2-2-2-2-2-2---10-10-10-10-10-10-10-10------|

CORO

|------------------------------------------------------------------------------------------------|
|------------------------------------------------------------------------------------------------|
|------------------------------------------------------------------------------------------------|
|-7-7-7-7-7-7-7-7-7-7---2-2-2-2-2-2-2-2-2-2---4-4-4-4-4-4-4-4-4-4---12-12-12-12-12-12-12-12------|
|-7-7-7-7-7-7-7-7-7-7---2-2-2-2-2-2-2-2-2-2---4-4-4-4-4-4-4-4-4-4---12-12-12-12-12-12-12-12------|
|-5-5-5-5-5-5-5-5-5-5---0-0-0-0-0-0-0-0-0-0---2-2-2-2-2-2-2-2-2-2---10-10-10-10-10-10-10-10------|
  Feelin all alone      dyin' ... ohhh ...    didn't I, didn't I    ... cryin'
  without a friend,                           didn't I, see you..
  you know you feel
  like ....

SOLO 2

|------------------------------------------------------------------------------------------------|
|------------------------------------------------------------------------------------------------|
|------------------------------------------------------------------------------------------------|
|-7-7-7-7-7-7-7-7-7-7---2-2-2-2-2-2-2-2-2-2---4-4-4-4-4-4-4-4-4-4---12-12-12-12-12-12-12-12------|
|-7-7-7-7-7-7-7-7-7-7---2-2-2-2-2-2-2-2-2-2---4-4-4-4-4-4-4-4-4-4---12-12-12-12-12-12-12-12------|
|-5-5-5-5-5-5-5-5-5-5---0-0-0-0-0-0-0-0-0-0---2-2-2-2-2-2-2-2-2-2---10-10-10-10-10-10-10-10------|


SILENCE

I want you to want me.
I want you to want me.
I want you to want me.
I want you to want me.

OUTRO

|----------------------------------------------------------------------|
|----------------------------------------------------------------------|
|----------------------------------------------------------------------|
|-7-7-7-7-7--5-5-5-5--12-12-12-12--7-7-7-7--5-5-5-5--12-12-12-12----7--|
|-7-7-7-7-7--5-5-5-5--12-12-12-12--7-7-7-7--5-5-5-5--12-12-12-12----7--|
|-5-5-5-5-5--3-3-3-3--10-10-10-10--5-5-5-5--3-3-3-3--10-10-10-10----5--|
Related for Juan Son - I Want You To Want Me tab