Song name
# A B C D E F G H I J K L M N O P Q R S T U V W X Y Z

Misc Unsigned Bands - Echo - Tears Of Acidd tab

Intro (clean)

e|--3--3--3-3-3333--3--3--3-3-3333--3--3--3-3-3333--3--3--3-3-3333--|
B|--3--3--3-3-3333--3--3--3-3-3333--3--3--3-3-3333--x--x--x-x-xxx3--|
G|--0--0--0-0-0000--0--0--0-0-0000--0--0--0-0-0000--3--3--3-3-333x--|
D|--0--0--0-0-0000--x--x--x-x-xxxx--x--x--x-x-xxxx--0--0--0-0-0002--|
A|--x--x--x-x-xxxx--3--3--3-3-3333--2--2--2-2-2222--0--0--0-0-0000--|
E|--3--3--3-3-3333--0--0--0-0-0000--0--0--0-0-0000--0--0--0-0-0000--|

Verse (clean)

e|--3-----3--3-3-3333-3-3--3-3-3333-3-3--3-3-3333-3-3--3-3-3333--|
B|--3-----3--3-3-3333-3-3--3-3-3333-3-3--3-3-3333-x-x--x-x-xxxx--|
G|--0-----0--0-0-0000-0-0--0-0-0000-0-0--0-0-0000-3-3--3-3-3333--|
D|--0-----0--0-0-0000-x-x--x-x-xxxx-x-x--x-x-xxxx-0-0--0-0-0000--|
A|--x-----x--x-x-xxxx-3-3--3-3-3333-2-2--2-2-2222-0-0--0-0-0000--|
E|--3-----3--3-3-3333-0-0--0-0-0000-0-0--0-0-0000-0-0--0-0-0000--|

Chorus (clean)

e|--x-----x--x-x--x-x--x--x--x--x-x--x-x--x--x--x--x-x--x-x--|
B|--0-----0--0-0--0-0--0--0--0--0-0--0-0--0--0--0--0-0--0-0--|
G|--0-----0--0-0--0-0--0--0--0--0-0--0-0--0--0--0--0-0--0-0--|
D|--0-----0--0-0--0-0--0--0--0--0-0--0-0--0--0--0--0-0--0-0--|
A|--2-----2--2-2--2-2--5--5--5--5-5--5-5--x--x--x--x-x--x-x--|
E|--3-----3--3-3--3-3--3--3--3--3-3--3-3--2--2--2--2-2--2-2--|

e|--x--x--x--x-x--x-x--x--|
B|--0--0--0--0-0--0-0--0--|
G|--0--0--0--0-0--0-0--0--|
D|--2--2--2--2-2--2-2--0--|
A|--2--2--2--2-2--2-2--3--|
E|--0--0--0--0-0--0-0--0--|

Chorus2

e|--x------------------x------------------x------------------x--|
B|--0------------------0------------------0------------------0--|
G|--0------------------0------------------0------------------0--|
D|--0------------------0------------------0------------------2--|
A|--2------------------5------------------x------------------2--|
E|--3------------------3------------------2------------------0--|

e|----------------x--|
B|----------------0--|
G|----------------0--|
D|----------------0--|
A|----------------3--|
E|----------------0--|


Order

Intro x2
Verse
Intro
Verse
Chorus
Intro x2
Verse
Verse
Chorus x3
Intro x2
Verse
Chorus2
Chorus
Tap to rate this tab
 
# A B C D E F G H I J K L M N O P Q R S T U V W X Y Z