Guitaretab - guitar tabs
Song name
# A B C D E F G H I J K L M N O P Q R S T U V W X Y Z

Misc Unsigned Bands - The Flaming Pics - The Traveler tab

-------------------------------------------------------------------------------
                   THE TRAVELER  The Flaming Pic
-------------------------------------------------------------------------------
Tabbed By: 0GibsonLesPaul0
Email: -----

Tuning: Standard


INTRO | with flanger and wah

e|----------------------------------------------|
B|----------------------------------------------|
G|-7-7-7-7-7-7-7-7-7-7-7-7-7-7-7-7-7-7-7-7-7-7--|
D|-7-7-7-7-7-7-7-7-7-7-7-7-7-7-7-7-7-7-7-7-7-7--|
A|-5-5-5-5-5-5-5-5-5-5-5-5-5-5-5-5-5-5-5-5-5-5--|
E|----------------------------------------------|

e|---------------------------------------------------------------------|
B|---------------------------------------------------------------------|
G|-7-7-7-7-7-7---5-7-7-7-7-7-7-10-9--7-7-7-7-7-7---5-7-7-7-7-7-7-10-9--|
D|-7-7-7-7-7-7-3-5-7-7-7-7-7-7-10-9--7-7-7-7-7-7-3-5-7-7-7-7-7-7-10-9--|
A|-5-5-5-5-5-5-3-3-5-5-5-5-5-5-8--7--5-5-5-5-5-5-3-3-5-5-5-5-5-5-8--7--|
E|-------------5---------------------------------5---------------------|


VERSE | 2X

e|-------------------------------------------------|
B|-------------------------------------------------|
G|-7---5---9/7---5---109--7---5---9/7---5---109--|
D|-7---5---9/7---5---109--7---5---9/7---5---109--|
A|-5---3---7/5---3---8--7--5---3---7/5---3---8--7--|
E|-------------------------------------------------|


CHORUS
[ Tab from: http://www.guitaretab.com/m/misc-unsigned-bands/180284.html ]
e|---------------------------------------------------------------------|
B|---------------------------------------------------------------------|
G|-7-7-7-7-7-7---5-7-7-7-7-7-7-10-9--7-7-7-7-7-7---5-7-7-7-7-7-7-10-9--|
D|-7-7-7-7-7-7-3-5-7-7-7-7-7-7-10-9--7-7-7-7-7-7-3-5-7-7-7-7-7-7-10-9--|
A|-5-5-5-5-5-5-3-3-5-5-5-5-5-5-8--7--5-5-5-5-5-5-3-3-5-5-5-5-5-5-8--7--|
E|-------------5---------------------------------5---------------------|


VERSE | 2X

e|-------------------------------------------------|
B|-------------------------------------------------|
G|-7---5---9/7---5---109--7---5---9/7---5---109--|
D|-7---5---9/7---5---109--7---5---9/7---5---109--|
A|-5---3---7/5---3---8--7--5---3---7/5---3---8--7--|
E|-------------------------------------------------|


CHORUS | 3X

e|---------------------------------------------------------------------|
B|---------------------------------------------------------------------|
G|-7-7-7-7-7-7---5-7-7-7-7-7-7-10-9--7-7-7-7-7-7---5-7-7-7-7-7-7-10-9--|
D|-7-7-7-7-7-7-3-5-7-7-7-7-7-7-10-9--7-7-7-7-7-7-3-5-7-7-7-7-7-7-10-9--|
A|-5-5-5-5-5-5-3-3-5-5-5-5-5-5-8--7--5-5-5-5-5-5-3-3-5-5-5-5-5-5-8--7--|
E|-------------5---------------------------------5---------------------|


BRIDGE

just put variation into this every once and a while.

e|----------------------------|
B|----------------------------|
G|-7-7---7-7-x-x-x-x-x-x-x---|
D|-7-7---7-7-x-x-x-x-x-x-x----|
A|-5-5---5-5-x-x-x-x-x-x-x----|
E|----------------------------|


OUTRO

e|------------------------|
B|------------------------|
G|-7-7-7---5-7-7-7---5-7--|
D|-7-7-7-7-5-7-7-7-7-5-7--|
A|-5-5-5-7-3-5-5-5-7-3-5--|
E|-------5---------5------|


http://artists.ultimate-guitar.com/flamingpicks/
Related for The Flaming Pics - The Traveler tab