Song name
# A B C D E F G H I J K L M N O P Q R S T U V W X Y Z

Misc Unsigned Bands - Insanity Enthroned - Vagina Dentata tab

Help us improve GuitareTab! Take a short survey!
VAGINA DENTATA - Vagina with teeth.... (ouch)

D|-----------------------------------------------------------|
A|-----------------------------------------------------------|
F|-----------------------------------------------------------|
C|-3-----4----------------------3-----4----------------------|
G|-1-4-3-2--2h5p2-----1h4p1-----1-4-3-2--2h5p2-----1h4p1-----|
D|---2-1----------3-2-------2-1---2-1----------3-2-------2-1-|
pm . . . .                      . . . .
D|-------------------------------------------------------------------|
A|-------------------------------------------------------------------|
F|-------------------------------------------------------------------|
C|-------------------------------3-2---------------------------------|
G|-----5---9---1---3h4p3-----4-3---------5---9---1---2h5p2---------1-|
D|-0-0---0---0---0-------5-3---------0-0---0---0---0-------3-2-1-0---|
pm . .   .   .   .                   . .   .   .   .       . . . .
D|-------------------------------------|
A|-------------------------------------|
F|-------------------------------------|
C|-------------------------------------|
G|-7"-----6"--3"2"3"-7"-----6"--3"2"6"-|
D|----0-0---------------0-0------------|
pm    . .               . .
D|-------------------------------------|
A|-------------------------------------|
F|-------------------------------------|
C|-------------------------------------|
G|-7"-----6"--3"2"3"-7"-----6"--3"2"6"-|
D|-------------------------------------|

D|-------------------------------------------|
A|-------------------------------------------|
F|-------------------------------------------|
C|-------------------------------------------|
G|-5h8p5-----4h7p4-----5h8p5-----4h7p4-3h6p3-|
D|-------0-0-------0-0-------0-0-------------|
pm       . .       . .       . .
D|-------------------------------------------|
A|-------------------------------------------|
F|-------------------------------------------|
C|-------------------------------777-6-------|
G|-5h8p5-----4h7p4-----5h8p5-----------------|
D|-------0-0-------0-0-------0-0-------------|
pm       . .       . .       . .
D|-------------------------------------|
A|-------------------------------------|
F|-------------------------------------|
C|-------------------------------------|
G|-7"-----6"--3"2"3"-7"-----6"--3"2"6"-|
D|----0-0---------------0-0------------|
pm    . .               . .
D|-------------------------------------|
A|-------------------------------------|
F|-------------------------------------|
C|-------------------------------------|
G|-7"-----6"--3"2"3"-7"-----6"--3"2"6"-|
D|-------------------------------------|

D|--------------------------------------|
A|--------------------------------------|
F|--------------------------------------|
C|--------------------------------------|
G|-------------------------------33-3-3-|
D|-0"---6"--2"-7"8"--0"---6"--2"-11-1-1-|
pm                               .. . .
D|------------------------------------------------------------------------|
A|------------------------------------------------------------------------|
F|------------------------------------------------------------------------|
C|------------------------------------------------------------------------|
G|-2-22-22===-22-22==-2-22-22===-22-22==-2-2222----2222----2-2222----2222-|
D|-0-00-00===-00-00==-0-00-00===-00-00==-0-0000----0000----0-0000----0000-|
pm . .. ..    .. ..   . .. ..    .. ..   . ...     ...     . ...     ...
D|-------------------------------------------------------------------|
A|-------------------------------------------------------------------|
F|-------------------------------------------------------------------|
C|-------------------------------3-2---------------------------------|
G|-----5---9---1---3h4p3-----4-3---------5---9---1---2h5p2---------1-|
D|-0-0---0---0---0-------5-3---------0-0---0---0---0-------3-2-1-0---|
pm . .   .   .   .                   . .   .   .   .       . . . .
D|-------------------------------------|
A|-------------------------------------|
F|-------------------------------------|
C|-------------------------------------|
G|-7"-----6"--3"2"3"-7"-----6"--3"2"6"-|
D|----0-0---------------0-0------------|
pm    . .               . .
D|-------------------------------------|
A|-------------------------------------|
F|-------------------------------------|
C|-------------------------------------|
G|-7"-----6"--3"2"3"-7"-----6"--3"2"6"-|
D|-------------------------------------|

D|---------------------------------------------------------------|
A|---------------------------------------------------------------|
F|---------------------------------------------------------------|
C|-------------------------------------------------------------3-|
G|-----4---5---5\4-----4---5---5\3-----4---5---5\4-----4---5---3-|
D|-0-0-2-0-3-0-3\2-0-0-2-0-3-0-3\1-0-0-2-0-3-0-3\2-0-0-2-0-3-0-1-|
pm . .   .   .     . .   .   .     . .   .   .     . .   .   .
D|---------------------------------------------------------------|
A|---------------------------------------------------------------|
F|---------------------------------------------------------------|
C|-----------------------------------------------------------2---|
G|-----4---5---5\4-----4---5---5\3-----4---5---5\4-6"5"------2---|
D|-0-0-2-0-3-0-3\2-0-0-2-0-3-0-3\1-0-0-2-0-3-0-3\2-----7"----0---|
pm . .   .   .     . .   .   .     . .   .   .
Related for Insanity Enthroned - Vagina Dentata tab