Song name
# A B C D E F G H I J K L M N O P Q R S T U V W X Y Z

Misc Unsigned Bands - Jiskefet - Er Zit Een Haar In Mn Glas tab

--------------------------------------------------------------------
	Er zit een haar in m'n glas - Jiskefet
---------------------------------------------------------------------
Tabbed by:deHufter
Email:kurtkill@hotmail.com

Tuning:standard

Intro:
e|--3--3-----------|
B|--4--4-----------|
G|--5--5---7--5----|
D|--5--5---8--6----|
A|--3--3---5--3----|
E|-----------------|

Verse:

Intro 4 times then:
e|----------------|
B|--9----8---6----|
G|--10---8---4----|
D|--10---8---6----|
A|--8----6---4----|
E|----------------|

En ik laat het met me doen...
e|-------------------------|
B|--9----8---6---4---------|
G|--10---8---5---5---------|
D|--10---8---6---6---------|
A|--8----6---5---6---------|
E|-------------------------|
Tap to rate this tab
# A B C D E F G H I J K L M N O P Q R S T U V W X Y Z