Song name
# A B C D E F G H I J K L M N O P Q R S T U V W X Y Z

Misc Unsigned Bands - Julian Giaimo - Double Paned Glass tab

Intro and Chorus:

E---------------------------------------------------------/
B---------------------------------------------------------/
G---------4/6\4-2---------------4/6\4-2h4p22h4p22h4p2-4---/ 2x
D--2------4/6\4-2-222222-2------4/6\4-2h4p22h4p22h4p2-4---/
A--2-2222-2/4\2-0-000000-2-2222-2/4\2-----------------2---/
D--0-0000----------------0-0000---------------------------/

Verse and During Solo's:

E---------------------------------------------------------/
B---------------------------------------------------------/
G------------2----46------------2-222---------------------/ 2x
D--2---------2-22246--2---------2-22264-------------------/
A--2-222222--0-00024--2-222222--0-00064-------------------/
D--0-000000-----------0-000000-------42-------------------/

Solo:

E--10/12-10/12-12p10--10----------------------------------/
B-------------------12--12-10/1212121212p10--10-----------/
G------------------------------------------12--12---------/ 
D---------------------------------------------------------/
A---------------------------------------------------------/
D---------------------------------------------------------/

E--10/12-10/12-12p10--10----------------------------------/
B-------------------12--12-10/1212121212p10--10-----------/
G------------------------------------------12--12---------/ 
D---------------------------------------------------------/
A---------------------------------------------------------/
D---------------------------------------------------------/

Second Solo:

E--10/12-10/12-12p10--10----------------------------------/
B-------------------12--12-10/1212121212p10--10-----------/
G------------------------------------------12--12---------/ 
D---------------------------------------------------------/
A---------------------------------------------------------/
D---------------------------------------------------------/

E--10/12-10/12-12p10--10--12/141414141614121412-----------/
B-------------------12--12--------------------------------/
G---------------------------------------------------------/ 
D---------------------------------------------------------/
A---------------------------------------------------------/
D---------------------------------------------------------/

Double Paned Glass lyrics

Can't sleep i think there's something wrong inside me.
Can't figure it out so i'll have to deal for the time being.
Don't know when it started i just know it's not fun.
I've been luggin' around thinkin' about when it'll be done.

And I'm
Not looking for anything but what the world will give me.
And I
Can't seem to look past the double paned glass to see.

Solo:

Fell down upon the gravel ground below me.
Tried to get up, but I felt stinging comin' from my knees.
And I've been wondering, while i'm in this daze,
If i'm sick or just going through a stupid phase.

And I(And I)
Don't know which hobby of mine I wish to pursue.
And I(And I)
Can't seem to walk past the double paned glass for you.
(And I)

Solo 2:

Can't seperate my dreams from reality.
It might be because my dreams may be a reality.

And I'm
Not looking for anything but what the world will give me.
(Can't seperate my dreams from reality.)
And I
Can't seem to look past the double paned glass to see.
(It might be because my dreams can be a reality.
Tap to rate this tab
 
# A B C D E F G H I J K L M N O P Q R S T U V W X Y Z