Guitaretab - guitar tabs
Song name
# A B C D E F G H I J K L M N O P Q R S T U V W X Y Z

Misc Unsigned Bands - Parmalee - Was It Everything tab

Track: Was It Everything
Artist: Parmalee
Album: Inside
Tabber: metalmania310
Email: Proachfan5@aol.com

1/2 step down.

intro/verse
e--------------------------------------------------------|
B--------------------------------------------------------|
G--------------------------------------------------------|
D--5-/-7-7-7-7-7-7-7-7-7-7-/-5-5-5-/-10101010101010------|
A--5-/-7-7-7-7-7-7-7-7-7-7-/-5-5-5-/-10101010101010------|
E--3-/-5-5-5-5-5-5-5-5-5-5-/-3-3-3-/-8-8-8-8-8-8-8-------|

intro fill
e-------------------------------------|
B-------------------------------------|
G-------------------------------------|
D--5-/-7-7-7-7-7-7-7-7-7-7-/-5-~------|
A--5-/-7-7-7-7-7-7-7-7-7-7-/-5-~------|
E--3-/-5-5-5-5-5-5-5-5-5-5-/-3-~------|

pre-chorus
e--------------------------------------------------------|
B--------------------------------------------------------|
G--7-7-7-7-7-7-7-7-7-7-7-7-7-7-7-7-7-7-7-7---------------|
D--7-7-7-7-7-7-7-7-7-7-7-7-7-7-7-7-7-7-7-7---------------|
A--5-5-5-5-5-5-5-5-5-5-5-5-5-5-5-5-5-5-5-5---------------|
E--------------------------------------------------------|

chorus: Dm, C, Am, G

post chorus
e--------------------------------|
B--------------------------------|
G---------0------0---------------|
D-------3-------3--3-/-5-5-5-----|
A----3--------3----3-/-5-5-5-----|
E--1--------1------1-/-3-3-3-----|

verse fill
e--------------------------------------------|
B--------------------------------------------|
G--------------------------------------------|
D--5-/-7-7-7-7-7-7-7-7-7-7--5-5-5-5-5-~------|
A--5-/-7-7-7-7-7-7-7-7-7-7--5-5-5-5-5-~------|
E--3-/-5-5-5-5-5-5-5-5-5-5--3-3-3-3-3-~------|
[ Tab from: http://www.guitaretab.com/m/misc-unsigned-bands/180370.html ]
alternate post chorus
e--------------------------------------------------------|
B--------------------------------------------------------|
G--------------------------------------------------------|
D------3-----5-----7-----9----10--3-/-5-5-5-5-5-5-5-5----|
A----3-----5-----7-----9----10----3-/-5-5-5-5-5-5-5-5----|
E--1-----3-----5-----7-----8------1-/-3-3-3-3-3-3-3-3----|

bridge
e-------------------------------------------------------------------------|
B-------------------------------------------------------------------------|
G-------------------------------------------------------------------------|
D--3-3-3-3-3-3-3-/-5-5-5-5-/-7-7-7-7-7-/-9-9-9-9-/-101010101010101010-3-~-|
A--3-3-3-3-3-3-3-/-5-5-5-5-/-7-7-7-7-7-/-9-9-9-9-/-101010101010101010-3-~-|
E--1-1-1-1-1-1-1-/-3-3-3-3-/-5-5-5-5-5-/-7-7-7-7-/-8-8-8-8-8-8-8-8-8--1-~-|


Song Order:

intro/verse x3
intro fill
intro/verse x4
pre chorus
chorus x3
post chorus x2
intro/verse x5
verse fill
chorus x3
alternate post chorus
bridge
intro/verse x2
verse fill/outro (dont let ring)
intro/verse
verse fill/outro (let ring)


Lyrics:


Thereís a certain moment
When thereís nothing left to say
And time seems to pass too slowly
As I watch you fade away
Cause sometimes I lose you again
Even when youíre standing in front of me

Was it everything you thought it would be?
Did you get what you wanted?
Was it everything you thought it would be?

Sometimes when you hold me
And run your fingers through my hair
You feel like you could own me
But hates too much to bare
Sometimes I lose you

Was it everything you thought it would be?
Did you get what you wanted?
Was it everything you thought it would be?

Did I ask too many questions?
Or maybe I didnít see
That you were everything I thought you would be
Related for Parmalee - Was It Everything tab