Guitaretab - guitar tabs
Song name
# A B C D E F G H I J K L M N O P Q R S T U V W X Y Z

Misc Unsigned Bands - Julian Giaimo - Duck And Cover tab

Intro:

e|----------------------------------------------------------------          |
B|-------7-----3--------------------7-----3-----------------------          |
G|-------7-----4-----4-----3---4----7-----4-----------4---6-------  2x      |
D|-------------------5-----4---5----------------2-----5---7-------          |
A|----5----5-2-------------------5----5-2-------2-----------------          |
E|----------------3----3-2---3---------------0----0-3---5---------          |

Verse 1:

e|----------------------------------------------------------------          |
B|----------------------------------------------------------------          |
G|----7--7-4--------------------7--7-4----------------------------   2x     |
D|-------------0---0---0---0-------------------------2~0----------          |
A|----5--5-2--------------------5--5-2--------------0-------------          |
E|-------------2h3-3---2h3-3/5-----------2h3-3---2h3--------------          |

1st Pre-Chorus:

e|----------------------------------------------------------------          |
B|--2----2---2---3---3---3----------------------------------------          |
G|--2----2---2---4---4---4-----4----4---4---4---4---6-------------          |
D|-----------------------------5----5---5---5---5---7-------------          |
A|-----0---0---0-2-2---2---2--------------------------------------          |
E|---------------------------3----3---3---3---3---5---------------          |

1st Chorus:

e|-------5-------2-------3--------------5-------2-------3-------5-          |
B|-------5-------3-------3--------------5-------3-------3-------5-          |
G|---7-7-7---4-4-4-------4----------7-7-7---4-4-4-------4-------6-  2x      |
D|---7-7-7---4-4-4---5-5-5----------7-7-7---4-4-4---5-5-5---7-7-7-          |
A|---5-5-5---2-2-2---5-5-5----------5-5-5---2-2-2---5-5-5---7-7-7-          |
E|-------------------3-3-3---0235-------------------3-3-3---5-5-5-          |

Verse 2:

e|----------------------------------------------------------------          |
B|----------------------------------------------------------------          |
G|----7--7-4--------------------7--7-4----------------------------   2x     |
D|-------------0---0---0---0-------------------------2~0----------          |
A|----5--5-2--------------------5--5-2--------------0-------------          |
E|-------------2h3-3---2h3-3/5-----------2h3-3---2h3--------------          |

2nd Pre-Chorus:
[ Tab from: http://www.guitaretab.com/m/misc-unsigned-bands/180400.html ]
e|----------------------------------------------------------------          |
B|--2----2---2---3---3---3----------------------------------------          |
G|--2----2---2---4---4---4-----4----4---4---4---4---6-------------          |
D|-----------------------------5----5---5---5---5---7-------------          |
A|-----0---0---0-2-2---2---2--------------------------------------          |
E|---------------------------3----3---3---3---3---5---------------          |

2nd Chorus:

e|-------5-------2-------3--------------5-------2-------3-------5-          |
B|-------5-------3-------3--------------5-------3-------3-------5-          |
G|---7-7-7---4-4-4-------4----------7-7-7---4-4-4-------4-------6-  2x      |
D|---7-7-7---4-4-4---5-5-5----------7-7-7---4-4-4---5-5-5---7-7-7-          |
A|---5-5-5---2-2-2---5-5-5----------5-5-5---2-2-2---5-5-5---7-7-7-          |
E|-------------------3-3-3---0235-------------------3-3-3---5-5-5-          |

Interlude

e|--------5----------------------5--------------------------------          |
B|----------5----------------------5------------------------------          |
G|--4/6------6h7-----4----4/6-------6/7-----4------6--------------          |
D|-------------------3----------------------3------7--------------          |
A|----------------------------------------------------------------          |
E|--3/5-5--------3-3------3/5-5---------3-3----5-5----------------          |


3rd Chorus:

e|----------------------------------------------------------------          |
B|-------7-----3--------------------7-----3-----------------------          |
G|-------7-----4-----4-----3---4----7-----4-----------4---6-------  2x      |
D|-------------------5-----4---5----------------2-----5---7-------          |
A|----5----5-2-------------------5----5-2-------2-----------------          |
E|----------------3----3-2---3---------------0----0-3---5---------          |

Outro:

e|--------------------------------------------------------5-------          |
B|--------------------------------------------------------7-------          |
G|----7--7-4--------------------7--7-4--------------------7-------          |
D|-------------0---0---0---0-------------------------2~0--5-------          |
A|----5--5-2--------------------5--5-2--------------0-----5-------          |
E|-------------2h3-3---2h3-3/5-----------2h3-3---2h3--------------          |

Duck And Cover lyrics

I see the world pass me by.
Still going through the motions I wonder why.
I'll stop and take some time instead,
And the words they'll throw at me will bounce off my head.

What will i do?
(Who knows and who cares)
Cuz i don't give a damn.
(Do you?)

Don't Talk me through your plans
(I don't wanna understand)
The life you're living
I'm just trying to get through mine.
I don't wanna be the same
(So when i hear your name)
I'll duck and cover
Am i too far out of line?

You talk to me as if i honestly know what your saying.
I'm still stuck on my own lines.
ANd being lazy ain't a bad thing it's a way to slow down.
Do you hear that all the time?

What will i do?
(Who knows and who cares)
Cuz i don't give a damn.
(Do you?)

:Chorus:

I don't see the sense
Of hating when you're bored
But when you're busy you're so tense.

:Chorus:

Related for Julian Giaimo - Duck And Cover tab
Advertisement will be closed in 10 seconds