Song name
# A B C D E F G H I J K L M N O P Q R S T U V W X Y Z

Misc Unsigned Bands - The David Experiment - Prelude tab

-----------------------------------------------------------------
PRELUDE - The David Experiment
-----------------------------------------------------------------
Tabbed by: MrGtD

Tuning: EADGBE

Part A
e|---------------------------------------------------------------|
B|-10-8-10\\5-8-6-5---6-6--5-6--3-3--3-5-----------------3-------|
G|--------------------7----5----4----3-----6---------------------|
D|-----------------------------------------|-7\\--2-5-3----------|
A|-----------------------------------------0---------------------|
E|---------------------------------------------------------------|

e|--------------------------------3//--5~------5~----------------|
B|-2---3//5---8--6--5---6----5----3------------2~----------------|
G|-|------|------|------7----|----|------------2~----------------|
D|-2-0----|------|-----------|----|---------2--------------------|
A|--------4------0-----------3----1--------0---------------------|
E|---------------------------------------------------------------|

Part B
e|-5--0--3--2---------------3------1----0-----------------1------|
B|----|-----|--3---2-5---0------3-------|--1---------------------|
G|----|-----|------4-----0------|-------|------0--3----2---------|
D|----|-----0-------------------|-------|------|-------3---------|
A|----4-------------------------1-------3------3-----------------|
E|---------------------------------------------------------------|

e|-1--0-------6---6--5--3--1--1p0h1p0h1p0h1p0h1p0--0--0~---------|
B|-1-----3--------3-----------|-----------------------2~---------|
G|-|-----|--------0-----------1-----------------------2~---------|
D|-|-----|-------------------------------------------------------|
A|-0-----1-------------------------------------------------0-----|
E|---------------------------------------------------------------|

e|-3p1p0-----------------1p0-------------------------------------|
B|--------3------------------3--3p2h3p2h3p2h3p2h3p2h3p2--3--3~---|
G|--------|---------------------|---------------------------2~---|
D|--------|---------------------|---------------------------0~---|
A|--------1--h3p1p0-------------0--------------------------------|
E|------------------3--------------------------------------------|

| /  slide up
| \  slide down
| h  hammer-on
| p  pull-off
| ~  vibrato
Tap to rate this tab
# A B C D E F G H I J K L M N O P Q R S T U V W X Y Z