Song name
# A B C D E F G H I J K L M N O P Q R S T U V W X Y Z

Misc Unsigned Bands - Surfin Turnips - Cider Commando tab

Help us improve GuitareTab! Take a short survey!
Heya - just a quick tab, pretty sure it's correct and the solo - improvise. However I 
put the beginning of it in there, but just solo over it =)


Cider Commando - E A D G B E
                 Key - E minor Pentatonic

Intro
|------------------------|
|------------------------|
|------------------------|
|---2-2---2--5--2--------|
|---2-2---2--5--2--------|
|---0-0---0--3--0--------|

Verse
|----------------------------------|
|----------------------------------|
|----------------------------------|
|---2--------------2---------------|
|---2--2-2-2-2-2-2-2--2-2-2-2-2-2--|
|---0--0-0-0-0-0-0-0--0-0-0-0-0-0--|

|----------------------------------|
|----------------------------------|
|---2--2-2-2-2-2-2-----------------|
|---2--2-2-2-2-2-2-5--5-5-2--2-2---|
|---0--0-0-0-0-0-0-5--5-5-2--2-2---|
|------------------3--3-3-0--0-0---|

Chorus
|-----------------------------------------------------------------|
|-----------------------------------------------------------------|
|--2-2-2-2-2-2-2-2------------------------------------------------|
|--2-2-2-2-2-2-2-2-5-5-5-5-5-5-5-5-2-2-2-2-2-2-2-2-2-2-2-2-2-2-2-2|
|--0-0-0-0-0-0-0-0-5-5-5-5-5-5-5-5-2-2-2-2-2-2-2-2-2-2-2-2-2-2-2-2|
|------------------3-3-3-3-3-3-3-3-0-0-0-0-0-0-0-0-0-0-0-0-0-0-0-0|

Solo
|--------------------------------------... Just improvise here,
|--------------------------------------...
|-------------------------0-2-0--------...
|--------0-2-0--------0-2-------2-0----...
|------2-------2----2------------------...
|--0-3------------3--------------------...


Outro           /same as intro\
|-----------------------------------|
|-----------------------------------|
|-----------------------------------|
|---2----2----2---2-2--2--5--2----2-|
|---2----2----2---2-2--2--5--2----2-|
|---0----0----0---0-0--0--3--0----0-|
Related for Surfin Turnips - Cider Commando tab