Song name
# A B C D E F G H I J K L M N O P Q R S T U V W X Y Z

Misc Unsigned Bands - Fight The Odds - Sloppy Seconds tab

This is the lead guitar part for the song "Sloppy Seconds" by my band Fight the Odds!
solo is not notated correctly in the sense that I did not give the notes their correct
I just wrote out the notes for you to follow to the song and figure it out yourself, 
goes with the chords in the chorus.  The song is in Drop D tuning; key is D major with a
accidentals.


PRE-VERSE:

|--------|
|--------|
|--------|
|--------|
|-4h5----|
|--------|

VERSE:
 |----PM----|        |----PM---------------|
|-------------------|----------------------|
|-------------------|------------------o---|
|-------------------|----------------------| X4
|--------------9-7--|-------------4-5-4----|
|--5-5-5-5-5-5------|-5-5-5-5-5-5------o---|
|-------------------|----------------------|


CHORUS:

|---------------|
|---------------|
|-7-------------| X4
|-7--9--5--7----|
|-5--9--5--7----|
|----9--5--7----|


SOLO:

|----------|------------------------|--------------|--------------9-------|
|-15~------|-14p12------------------|--------------|-------7-8-10---[15]--|
|----------|-------14p12s11-12p11s9-|-9p7s6-6h7----|-6-7-9----------------|
|----------|------------------------|--------------|----------------------|
|----------|------------------------|--------------|----------------------|
|----------|------------------------|--------------|----------------------|

*[15] means pinch harmonic on that note.


|----------14-14----------|----------14-14----------|
|-------15-------15-------|-------15-------15-------|
|----16-------------16----|----16-------------16----|
|-17-------------------17-|-17-------------------17-|  *Sweep pick these
|-------------------------|-------------------------|   notes.
|-------------------------|-------------------------|


|----------14-14----------|----------14-14----------|
|-------15-------15-------|-------15-------15-------|
|----16-------------16----|----16-------------16----|
|-17-------------------17-|-17-------------------17-|
|-------------------------|-------------------------|
|-------------------------|-------------------------|


*"TP" means Tremolo Pick


       TP  TP  TP    TP  TP         TP TP     TP TP       TP TP     TP TP
|-14--15--17--19--|-21--22-------|-22-21s19--21-19s17--|-19p17s15--17p15s14---|
|-----------------|--------------|---------------------|----------------------|
|-----------------|--------------|---------------------|----------------------|
|-----------------|--------------|---------------------|----------------------|
|-----------------|--------------|---------------------|----------------------|
|-----------------|--------------|---------------------|----------------------|


   TP TP     TP TP
|-15p14s12--14p12s10--|-9h10--------|-----------------------|
|---------------------|----------3--|-12-----14-----15------|
|---------------------|-------------|-14b16--17b19--19b21---|
|---------------------|-------------|-----------------------|
|---------------------|-------------|-----------------------|
|---------------------|-------------|-----------------------|


|---------------------------------------------|
|-15----15----15----15----15----15----15------|
|-19b21-19b21-19b21-19b21-19b21-19b21-19b21---|
|---------------------------------------------|
|---------------------------------------------|
|---------------------------------------------|

*These are just 2-note bends with the last one strummed multiple times till the end.
Tap to rate this tab
 
# A B C D E F G H I J K L M N O P Q R S T U V W X Y Z