Song name
# A B C D E F G H I J K L M N O P Q R S T U V W X Y Z

Misc Unsigned Bands - Wetslipperz - Bisan Pa tab

Song: Bisan Pa
Artist: Wetslipperz

Bay, first tym pa ni nako mo submit og tab,
if naay comment send niyo lang sa manters2000@yahoo.com

BIZROCK RULES!!!


Adlib:

|--------------------------------------------------------------------|
|-----------------------------------------------------8--\\-10-------|
|----------------------------------------------7-9--7----------------|
|------------------9--7--777--555-444--222---9------------=----------|
|--------7--9--10------------------------------=---------------------|
|-\\8-10----------------------------------------=--------------------|

|-------------10--8-7------------------------------------------|
|------7-h-8----------8--10^--8--------------------------------|
|--7-9--------------------------9^--7-777--555--444-222--------|
|--------------------------------------------------------------|
|--------------------------------------------------------------|
|--------------------------------------------------------------|

|---------------------------------------------------------15---15--17^^-----|
|--------7-8^-7-8^----8-10^-8-10^----7-8^-7-8-^--\\\--(13)---13-------------|
|--\\\7-9-------7-9--------------7-9----------------------------------------|
|---------------------------------------------------------------------------|
|---------------------------------------------------------------------------|
|---------------------------------------------------------------------------|

That's all, for comment and suggestions, send lang sa manters2000@yahoo.com
Tap to rate this tab
# A B C D E F G H I J K L M N O P Q R S T U V W X Y Z