Song name
# A B C D E F G H I J K L M N O P Q R S T U V W X Y Z

Misc Unsigned Bands - Die Filos - Perlen Live tab

Perlen Live

---3-3/5-5-3-2---0-2p0---0-----0---------------0-|
---3-------------0---------0---1-3p1---1-------2-|
---0-------------0-------------0---------0-----2-|
---0-------------2-----2-------2-----2---------2-|Strum
---2-------------2-----------3-3-----------0-0-0-|
-3-3-----------0-0-------------------------------|

---3---------------------------------------------|
---3---------------------------------------------|
---0---------------------------------------------|
---0---------------------------------------------|
---2---------------------------------------------|
-3-3---------------------------------------------|

Chorus:
G Em C A

-------------------3---3---3---3-----------------|
-----------------1---1---1---1-------------------|
----------------------------------------6--------|
-----------2---------------------7------7--------|
---2-0-3-----2-0-----------------7------7--------|
-3-------0-----------------------5------5--------|

Distorted Solo with Wahwah
-------------------------------------8^----------|
----------5-----5-----5-----5-----7-10^-13b15/12-|
------5h6---5h6---5h6---5h6---5h6----------------|
-5~~~--------------------------------------------|
-------------------------------------------------|
-------------------------------------------------|

--------9~~~-------------------------------------|
-1-----------------------------------------------|
---------///-----------------------------0-2-4/6-|
-----//--///-------------------------0-2---------|
---//////--------5b6r5-3/2-0~~~--0-2-------------|
---//////----5h7---------------------------------|

---------------2h0---2/4---5~~~-2---------t17----|
-8b10--------------0-----0--------2--------------|
------9-7-////--------------------2-//////-----2-|
----------------------------------2--------------|
----------------------------------0--------------|
-------------------------------------------------|

-------------------------------------------------|
-------------------------------------------------|
-------------------------------------------------|
-------------------------------------------------|
-3p0-2~~~----------------------------------------|
-----------5-4///0~~~~~--------------------------|
Tap to rate this tab
# A B C D E F G H I J K L M N O P Q R S T U V W X Y Z