Guitaretab - guitar tabs
Song name
# A B C D E F G H I J K L M N O P Q R S T U V W X Y Z

Misc Unsigned Bands - Matt Hires - Honey Let Me Sing You A Song tab

Hey Guys
This pretty much it. Just listen to it to figure out the strumming patterens... really 
to pick up.
Nice Song.
Enjoy :)

Capo on the first fret

Intro  finger picking on these chords
e||--0-------------0-------------0-------------0--------------||
b||--3-------------1-------------3-------------1--------------||
g||--0-------------0-------------0-------------0--------------||
d||--4-------------2-------------4-------------2--------------||
a||--5-------------3-------------5-------------3--------------||
e||--0-------------0-------------0-------------0--------------||

Verse 1  finger picking
e||--0------0------0------0------0------0------0------0-------||
b||--3------1------3------1------3------1------3------1-------||
g||--0------0------0------0------0------0------0------0-------||
d||--4------2------4------2------4------2------4------2-------||
a||--5------3------5------3------5------3------5------3-------||
e||--0------0------0------0------0------0------0------0-------||

Chorus
e||--0------10-----3------0------0------10-----0--------------||
b||--8------10-----3------1------8------10-----1--------------||
g||--0------0------0------0------0------0------0--------------||
d||--9------0------0------2------9------0------2--------------||
a||--10-----9------2------3------10-----9------3--------------||
e||--0------10-----3------0------0------10-----0--------------||
[ Tab from: http://www.guitaretab.com/m/misc-unsigned-bands/180651.html ]
e||--0------10-----3------0------0------10-----0--------------||
b||--8------10-----3------1------8------10-----1--------------||
g||--0------0------0------0------0------0------0--------------||
d||--9------0------0------2------9------0------2--------------||
a||--10-----9------2------3------10-----9------3--------------||
e||--0------10-----3------0------0------10-----0--------------||

Verse 2  finger picking
e||--0------0------0------0------0------0------0------0-------||
b||--3------1------3------1------3------1------3------1-------||
g||--0------0------0------0------0------0------0------0-------||
d||--4------2------4------2------4------2------4------2-------||
a||--5------3------5------3------5------3------5------3-------||
e||--0------0------0------0------0------0------0------0-------||

Repeat Chorus

Bridge
e||--0-------------0------3------0-------------0------0-------||
b||--1-------------1------3------1-------------1------1-------||
g||--2-------------0------0------2-------------0------0-------||
d||--2-------------2------0------2-------------2------2-------||
a||--0-------------3------2------0-------------3------3-------||
e||--0-------------0------3------0-------------0------0-------||

e||--0-------------0------3------0-------------0--------------||
b||--1-------------1------3------1-------------1--------------||
g||--2-------------0------0------2-------------0--------------||
d||--2-------------2------0------2-------------2--------------||
a||--0-------------3------2------0-------------3--------------||
e||--0-------------0------3------0-------------0--------------||

Repeat Chorus x4

Also with the G chord in the Bridge he does something with the bass note but i couldnt 
it out from the video... Sounds just as good without out it.
Let me know if anything else is wrong.
Thanks.
Tab by Jake
Related for Matt Hires - Honey Let Me Sing You A Song tab