Song name
# A B C D E F G H I J K L M N O P Q R S T U V W X Y Z

Misc Unsigned Bands - The Cast Before The Break - Cerca Trova tab

-----------------------------------------------------------------------------
			     SONG NAME - Band Name
-----------------------------------------------------------------------------
Tabbed by: Alex
Email: deflep862001@yahoo.com

I just figured this out and thought id throw it up here. Im sure its not 100% correct 
it sounds pretty close when played with the song.

Tuning: half step down

e|-------------------------2p0---------------------------------------|
B|---------3-------------------3-5-0---------3-----------------------|
G|-----4-----4---------4-----------------4-----4---------4-------3---|
D|---4---4-------4---2---2-----------------4-----------4---4---4---4-|
A|-2-----------2---0-------------------2-----------2-----------------|
E|-----------------------------------0-----------0---3-------2-------|

after that

e||------------------------------------||
B||------------------------------------||
G||--2-2-2-2-2-------------------------||
D||--2-2-2-2-2-2/4\2p0-5-5-5-5-5-----4-||
A||--0-0-0-0-0---------5-5-5-5-5-----2-||
E||--------------------3-3-3-3-3-0-3---||
Tap to rate this tab
# A B C D E F G H I J K L M N O P Q R S T U V W X Y Z