Song name
# A B C D E F G H I J K L M N O P Q R S T U V W X Y Z

Misc Unsigned Bands - Sonic Weasels - Stand Up Or Step Back tab

this is my own song and here it goes


--0--------------------------------------------------|
------1------0---------------------------------------|
--------2--------1-----------------------------------|       play this 2 times
-------------------2---------------------------------|
--0--------------------------------------------------|
-------------0---------------------------------------|

play this once

----------------------------|
----------------------------|
----------------------------|
----------------------------|
----------------------------|
--2-2-2-2-2-2-2-2-----------|


play this 4 times and your done hoped you liked it.


-------------------------------------------|
-------------------------------------------|
--------------------------             x=4-|
-------------------------------------------|
----------7----6----5----------------------|
--5/4\5-----5-----5----3-4-----------------|


/=slide up to 4th fret
\=slide down to 5th fret
Tap to rate this tab
# A B C D E F G H I J K L M N O P Q R S T U V W X Y Z