Song name
# A B C D E F G H I J K L M N O P Q R S T U V W X Y Z

Misc Unsigned Bands - 33degree - Dark tab

Help us improve GuitareTab! Take a short survey!
-------------------------------------------------------------------------------
			     D.A.R.K. - 33DEGREE
-------------------------------------------------------------------------------
Tabbed by: lazlohenry
Email: lazlohenry@yahoo.com

Tuning: Drop D   I think it's in 13's

Intro riff
e|------------------------------------------------------------------------------|
B|------------------------------------------------------------------------------|
G|------------------------------------------------------------------------------|
D|------------------------------------------------------------------------------| x4
A|-----------------8-----------------7------------------------------------------|
D|------------7----------------7------------------------------------------------|
     P.M.


e|------------------------------------------------------------------------------|
B|------------------------------------------------------------------------------|
G|------------------------------------------------------------------------------|
D|------------------------------------------------------------------------------| X4
A|-------------------8----------------8p7---------------------------------------|
D|-------------7-----------------7----------------------------------------------|


E|---------------------------------------------------------------------------|
B|---------------------------------------------------------------------------|
G|---------------------------------------------------------------------------|
D|---------------------------------------------------------------------------| X8
A|--------8-0-----8-0-----8-0--------7|/3------------------------------------|
D|----7--------7--------7--------------7|/3----------------------------------|
      ..PM..

"Double Bass part"
E|--------------------------------------------------------------------------|
B|--------------------------------------------------------------------------|
G|--------------------------------------------------------------------------|
D|---->-------->------------------------------------------------------------|
A|---7777--7777---88888----7777--7777----88---33---55-----------------------|
D|---7777--7777---88888----7777--7777----88---33---55-----------------------|

E|-------------------------------------------------------------------------------|
B|-------------------------------------------------------------------------------|
G|-------------------------------------------------------------------------------|
D|----.---.----.-----.----.---------.---.----.-----.----.------------------------|
A|----7---8---7-- 8--10--------7---8---7-- 8--10---3--5--------------------------|
D|----7---7---7---8--10-------7---7---7---8--10---3-- 5--------------------------|

"The Words start here..."
E|---------------------------------------------------------------------------------|
B|---------------------------------------------------------------------------------|
G|---------------------------------------------------------------------------------|
D|---------------------------------------------------------------------------------|
A|------------8-8-8----------8-8-8---10-10---------------8-8-8---------------------|
D|--7-7-7----------7-7-7-------------------------7-7-7------------7-7-7--------3/--|

"commas and lines..."
E|---------------------------------------------------------------|
B|---------------------------------------------------------------|
G|---------------------------------------------------------------|
D|---------------------------------------------------------------|
A|-----777---888--777--88--1010--------777--888--777--3---5---7--|
D|-----777--777---777--88--1010--------777--777--777--3---5--7---|

Then same thing but with full chords I think...


| /  slide up
| \  slide down
| h  hammer-on
| p  pull-off
| ~  vibrato
| +  harmonic
| x  Mute note
===============================================================================
Related for 33degree - Dark tab