Song name
# A B C D E F G H I J K L M N O P Q R S T U V W X Y Z

Misc Unsigned Bands - Krampus - Serenade Of The Incubus tab

  h = hammer on
  p = pull off
  b = bend
  / = slide up
  \ = slide down
  * = pinch harmonic
  # = natural harmonic
  ~ = vibrato
  x = mute note
pm. = palm mute
  > = hold note
  < stop holding note


 Intro: x2
  pm.. .. . .. .. . .. .. . .. .. . ..  ..  .  ..  ..  .   ..
C#|-------------------------------------------------------|--------------------------|
G#|-------------------------------------------------------|--------------------------|
 E|-------------------------------------------------------|--------------------------|
 b|-------------------------------------------------------|--------------8-7------7-9|
F#|---7--7-7--7--7-7--7--8-8--8--8-8--10--10-10--12--12-12|--10-8-7-8-10----10-8*-5-7|
 B|-00-00-0-00-00-0-00-00-0-00-00-0-00--00--0--00--00--0--|00------------------------|

 Fill 1:
C#|--------------------------------------------|
G#|--------------------------------------------|
 E|--------------------------------------------|
 b|--------------------------------------------|
F#|-0>---------------------------------<-------|
 B|-0>---------------------------------<-x15\x5|

 Verse: x2
  pm.. .. . .. .. . .. .. . .. .. . ..  ..  .  ..  ..  .   ..                         1) 2)
C#|-------------------------------------------------------|--------------------------||---|
G#|-------------------------------------------------------|--------------------------||---|
 E|-------------------------------------------------------|--------------------------||---|
 b|-------------------------------------------------------|--------------8-7------7-9||---|
F#|---7--7-7--7--7-7--8--8-8--8--8-8--10--10-10--12--12-12|--10-8-7-8-10----10-8*-5-7||-7*|
 B|-00-00-0-00-00-0-00-00-0-00-00-0-00--00--0--00--00--0--|00------------------------||0--|

 Pre-Chorus: x2
   pm........       ........        ... ... ... ... ... ...  1)           2)                    
C#||------------------------------|------------------------|-||------------|
G#||------------------------------|------------------------|-||------------|
 E||------------------------------|------------------------|-||------------|
 b||------------------------------|----3---3---3---3---3---|5||--9--7--5--2|
F#||-------------------------2h3p2|-22222222222222222222222|3||777555333000|
 E||-00000000-3p2p0-00000000------|------------------------|-||------------|

 Fill 2:
C#|--------------------|
G#|--------------------|
 E|--------------------|
 b|--------------------|
F#|------------------00|
 B|------------------00|

 Chorus: x2
                                                                 pm.. .. ..
C#|----------------|----------------|----------------|------------------------|
G#|----------------|----------------|----------------|------------------------|
 E|----------------|----------------|----------------|------------------------|
 b|----------------|----------------|----------------|------------------------|
F#|5555555555555555|7777777777777777|9999999999999999|1010109>-<97---7--5--9*~|
 B|5555555555555555|7777777777777777|9999999999999999|1010109>-<97-00-00-00---|

 Verse: x2
  pm.. .. . .. .. . .. .. . .. .. . ..  ..  .  ..  ..  .   ..                        1)  2)
C#||-------------------------------------------------------|--------------------------||---|
G#||-------------------------------------------------------|--------------------------||---|
 E||-------------------------------------------------------|--------------------------||---|
 b||-------------------------------------------------------|--------------8-7------7-9||---|
F#||---7--7-7--7--7-7--8--8-8--8--8-8--10--10-10--12--12-12|--10-8-7-8-10----10-8*-5-7||-7*|
 B||-00-00-0-00-00-0-00-00-0-00-00-0-00--00--0--00--00--0--|00------------------------||0--|

 Fill 2:
C#|--------------------|
G#|--------------------|
 E|--------------------|
 b|--------------------|
F#|------------------00|
 B|------------------00|

Chorus: x2
                                                               pm.. .. ..
C#|----------------|----------------|----------------|----------------------|
G#|----------------|----------------|----------------|----------------------|
 E|----------------|----------------|----------------|----------------------|
 b|----------------|----------------|----------------|----------------------|
F#|5555555555555555|7777777777777777|9999999999999999|10109>-<97---7--5--9*~|
 B|5555555555555555|7777777777777777|9999999999999999|10109>-<97-00-00-00---|

 Break:
C#|----------------------------------------------------------------------|
G#|----------------------------------------------------------------------|
 E|----------------------------------------------------------------------|
 b|----------------------------------------------------------------------|
F#|-0>------------<00--3>---<2>---<0>------------<00--3>---<5>---<7>---<0|
 B|-0>------------<00--3>---<2>---<0>------------<00--3>---<5>---<7>---<0|

 Harmony Solo:
 pm ..  ..  ..  ..  ..  ..  .  .   ..  ..  ..  ..  ..  ..
C#|---------------------------------------------------------|
G#|---------------------------------------------------------|
 E|---12--14--12--14--12--15-12-14*--12--12--12--12--14--15*|
 b|-00--00--00--00--00--00--0--0---00--00--00--00--00--00---|
F#|---------------------------------------------------------|
 B|---------------------------------------------------------|

 Solo 1:
C#|--------------------------------------------------------------|
G#|--------------------------------------------------------------|
 E|-------------------------Improvise Solo-----------------------|
 b|---------------------------On B Minor-------------------------|
F#|-----------------------------Scale----------------------------|
 B|--------------------------------------------------------------|
  |
  |pm.. .. . .. .. . ..  ..  ..  .  ..  ..  .  ..  .  ..  ..  .
C#|--------------------------------------------------------------|
G#|--------------------------------------------------------------|
 E|--------------------------------------------------------------|
 b|----9--9-9--9--9-9--10--10-10--10--10-10--12--12-12--14--14-14|
F#|--7777777777777777777 777 77 777 777 77 777 777 77 777 777 77 | 
 B|--------------------------------------------------------------|

Harmony Solo:
 pm ..  ..  ..  ..  ..  ..  .  .   ..  ..  ..  ..  ..  ..
C#|---------------------------------------------------------|
G#|---------------------------------------------------------|
 E|---12--14--12--14--12--15-12-14*--12--12--12--12--14--15*|
 b|-00--00--00--00--00--00--0--0---00--00--00--00--00--00---|
F#|---------------------------------------------------------|
 B|---------------------------------------------------------|

 Solo 2:
C#|--------------------------------------------------------------|
G#|--------------------------------------------------------------|
 E|-------------------------Improvise Solo-----------------------|
 b|---------------------------On D Major-------------------------|
F#|-----------------------------Scale----------------------------|
 B|--------------------------------------------------------------|
  |
  |pm.. .. . .. .. . ..  .  ..  ..  .  ..  ..  .  ..  ..  ..  .
C#|--------------------------------------------------------------|
G#|--------------------------------------------------------------|
 E|--------------------------------------------------------------|
 b|----9--9-9--9--9-9--10-10--10--10-10--12--12-12--12--14--14-14|
F#|--7777777777777777777 77 777 777 77 777 777 77 777 777 777 77 |
 B|--------------------------------------------------------------|

 Harmony Solo:
 pm ..  ..  ..  ..  ..  ..  .  .   ..  ..  ..  ..  ..  ..
C#|---------------------------------------------------------|
G#|---------------------------------------------------------|
 E|---12--14--12--14--12--15-12-14*--12--12--12--12--14--15*|
 b|-00--00--00--00--00--00--0--0---00--00--00--00--00--00---|
F#|---------------------------------------------------------|
 B|---------------------------------------------------------|

Solo 3: x4
C#|--------------------------------------------------------------|
G#|--------------------------------------------------------------|
 E|-------------------------Improvise Solo-----------------------|
 b|--------------------------On G lydian-------------------------|
F#|--------------------------------------------------------------|
 B|--------------------------------------------------------------|
  |
  |pm.. .. . .. .. . ..  ..  .  ..  ..  .  ..  ..  .  ..  ..  .
C#|--------------------------------------------------------------|
G#|--------------------------------------------------------------|
 E|--------------------------------------------------------------|
 b|----9--9-9--9--9-9--10--10-10--10--10-10--12--12-12--14--14-14|
F#|--7777777777777777777 777 77 777 777 77 777 777 77 777 777 77 |
 B|--------------------------------------------------------------|

 Break:
                 pm..
C#|----------------------------------------------------------------------|
G#|----------------------------------------------------------------------|
 E|----------------------------------------------------------------------|
 b|----------------------------------------------------------------------|
F#|-0>------------<00--3>---<2>---<0>------------<00--3>---<5>---<7>---<0|
 B|-0>------------<00--3>---<2>---<0>------------<00--3>---<5>---<7>---<0|

Chorus: x2
                                                                  pm.. .. ..
C#|-----------------|----------------|----------------|------------------------|
G#|-----------------|----------------|----------------|------------------------|
 E|-----------------|----------------|----------------|------------------------|
 b|-----------------|----------------|----------------|------------------------|
F#|-5555555555555555|7777777777777777|9999999999999999|1010109>-<97---7--5--9*~|
 B|-5555555555555555|7777777777777777|9999999999999999|1010109>-<97-00-00-00---|

 Outro:
C#|-----------------|----------------|----------------|-----------------------||
G#|-----------------|----------------|----------------|-----------------------||
 E|-----------------|----------------|----------------|-----------------------||
 b|-----------------|----------------|----------------|-----------------------||
F#|-5555555555555555|7777777777777777|9999999999999999|1010109>-<97-0>----Fade||
 B|-5555555555555555|7777777777777777|9999999999999999|1010109>-<97-0>----Out-||
Tap to rate this tab
 
# A B C D E F G H I J K L M N O P Q R S T U V W X Y Z