Song name
# A B C D E F G H I J K L M N O P Q R S T U V W X Y Z

Misc Unsigned Bands - Kaizen - Alma De Metal tab

|---------0-----------0--------0--------------------------------------------|
|---------------------------------------3/5---------------------------------|
|------2-----2-----2--------2--------0--------------------------------------|
|---------------3--------2--------0-----------------------------------------|
|---0-----------------------------------------------------------------------|
|---------------------------------------------------------------------------|

|---------------------------------------------------------------------------|
|----------------------------------------3/5--------------------------------|
|-------2----------2----------2---------------------------------------------|
|----------3----------2----------0------------------------------------------|
|--x-x--------x-x--------x-x--------x-x-------------------------------------|
|---------------------------------------------------------------------------|
Tap to rate this tab
# A B C D E F G H I J K L M N O P Q R S T U V W X Y Z