Song name
# A B C D E F G H I J K L M N O P Q R S T U V W X Y Z

Misc Unsigned Bands - Dear Cyanide - Chained Down tab

+++++++++++Dear Cyanide-Chained Down+++++++++++++++++ 2008 +++++++++++++

Drop D

Intro


E|---------------------------------------------------------------------|
B|---------------------------------------------------------------------|
G|-----------------------------5/7-------------------------------------|
D|--0--3-2-0-6--0-5--0-3-0-3-0-5/7-------------------------------------|
A|--0--3-2-0-6--0-5--0-3-0-3-0-3/5-------------------------------------|
D|--0--3-2-0-6--0-5--0-3-0-3-0-----------------------------------------|

E|---------------------------------------------------------------------|
B|---------------------------------------------------------------------|
G|---------------------------------------------------------------------|
D|--0--3-2-0-6--0-5--0-3-0-3-0-----------------------------------------|
A|--0--3-2-0-6--0-5--0-3-0-3-0-----------------------------------------|
D|--0--3-2-0-6--0-5--0-3-0-3-0--(3~)-----------------------------------|

E|---------------------------------------------------------------------|
B|---------------------------------------------------------------------|
G|-----------------------------5/7-------------------------------------|
D|--0--3-2-0-6--0-5--0-3-0-3-0-5/7-------------------------------------|
A|--0--3-2-0-6--0-5--0-3-0-3-0-3/5-------------------------------------|
D|--0--3-2-0-6--0-5--0-3-0-3-0-----------------------------------------|

E|---------------------------------------------------------------------|
B|---------------------------------------------------------------------|
G|---------------------------------------------------------------------|
D|--0--3-2-0-6--0-5--0-3-0-3-0-----------------------------------------|
A|--0--3-2-0-6--0-5--0-3-0-3-0--(3~)-----------------------------------|
D|--0--3-2-0-6--0-5--0-3-0-3-0-----------------------------------------|

E|---------------------------------------------------------------------|
B|---------------------------------------------------------------------|
G|-----------------------------5/7-------------------------------------|
D|--0--3-2-0-6--0-5--0-3-0-3-0-5/7-------------------------------------|
A|--0--3-2-0-6--0-5--0-3-0-3-0-3/5-------------------------------------|
D|--0--3-2-0-6--0-5--0-3-0-3-0-----------------------------------------|

E|---------------------------------------------------------------------|
B|---------------------------------------------------------------------|
G|---------------------------------------------------------------------|
D|--0--3-2-0-6--0-5--0-3-0-3-0--3\2-0----------------------------------|
A|--0--3-2-0-6--0-5--0-3-0-3-0--3\2-0----------------------------------|
D|--0--3-2-0-6--0-5--0-3-0-3-0--3\2-0----------------------------------|
                                     let ring--------------------------|
Verse
Riff A
E|---------------------------------------------------------------------|
B|---------------------------------------------------------------------|
G|---------------------------------------------------------------------|
D|-0-3-2-0-6-5-0-6-5-0-2-3-2-0-0-0-------------------------------------|
A|-0-3-2-0-6-5-0-6-5-0-2-3-2-0-0-0-------------------------------------|
D|-0-3-2-0-6-5-0-6-5-0-2-3-2-0-0-0-------------------------------------|

Riff B
E|---------------------------------------------------------------------|
B|---------------------------------------------------------------------|
G|---------------------------------------------------------------------|
D|-0-3-2-0-6-5-0-6-5-0-2-3-2-0-----------------------------------------|
A|-0-3-2-0-6-5-0-6-5-0-2-3-2-0-----------------------------------------|
D|-0-3-2-0-6-5-0-6-5-0-2-3-2-0-(3~)------------------------------------|

Repeat A&B

Repeat A&B x2 W/ Palm Mute

Chorus Riff

E|---------------------------------------------------------------------|
B|---------------------------------------------------------------------|
G|---------------------------------------------------------------------|
D|--0--0-0--0-2-3--3-3--3--2--2-2--2--5-5-5--5-5-5--5-7----------------|
A|--0--0-0--0-2-3--3-3--3--2--2-2--2--5-5-5--5-5-5--5-7----------------|
D|--0--0-0--0-2-3--3-3--3--2--2-2--2--5-5-5--5-5-5--5-7----------------|

Repeat Chorus Riff X 4

Repeat A&B Riff

Repeat A&B Riff X 2 W/ Palm mute

Repeat Chorus

Bridge Riff

E|----------------------------------------------------------------------|
B|----------------------------------------------------------------------|
G|----------------------------------------------------------------------|
D|-0-3-2-0-0-x-x-0-x-x-0-x------------0-3-2-0-0-x-x-0-x-x-0-x-----------|
A|-0-3-2-0-0-x-x-0-x-x-0-x--/5-3------0-3-2-0-0-x-x-0-x-x-0-x-3---(3)-5-|
D|-0-3-2-0-0-x-x-0-x-x-0-x-------6-5--0-3-2-0-0-x-x-0-x-x-0-x---5-------|

Repeat Bridge Riff X4 [2nd & 4th time PH the ()note and drop the last note]

Repeat Chorus

Repeat Verse

Repeat Chorus

Repeat A&B Riff
Tap to rate this tab
 
# A B C D E F G H I J K L M N O P Q R S T U V W X Y Z