Song name
# A B C D E F G H I J K L M N O P Q R S T U V W X Y Z

Misc Unsigned Bands - In The Crawlspace - I Cant Breathe tab

e|------------------------------------------------------------------|
B|------------------------------------------------------------------|
G|------------------------------------------------------------------|
D|------4--------------4----------------4---------------------------|
A|-2-2-2--2-2-4-2-2-2-2--2-2-4--2-2-2-2---2-2-4-2-0-2-4-------------|(REPEAT)
E|------------------------------------------------------------------|


e|------------------------------------------------------------------|
B|------------------------------------------------------------------|
G|-------9----10---------9-----10---------9-----10------------------|
D|-7-777--777----777-777---777----777-777---777---------------------|
A|------------------------------------------------------------------|
E|------------------------------------------------------------------|

e|------------------------------------------------------------------|
B|------------------------------------------------------------------|
G|-10-9-7-10-9-7-10-9-7-10-9-7-10-9-10-9----------------------------|
D|------------------------------------------------------------------|
A|------------------------------------------------------------------|
E|------------------------------------------------------------------|

e|------------------------------------------------------------------|
B|------------------------------------------------------------------|
G|-------9----10---------9-----10---------9-----10------------------|
D|-7-777--777----777-777---777----777-777---777---------------------|
A|------------------------------------------------------------------|
E|------------------------------------------------------------------|

e|------------------------------------------------------------------|
B|------------------------------------------------------------------|
G|-10-9-7-10-9-7-10-9-7-10-9-7-10-9-10-9----------------------------|
D|------------------------------------------------------------------|
A|------------------------------------------------------------------|
E|------------------------------------------------------------------|
Tap to rate this tab
# A B C D E F G H I J K L M N O P Q R S T U V W X Y Z