Guitaretab - guitar tabs
Song name
# A B C D E F G H I J K L M N O P Q R S T U V W X Y Z

Misc Unsigned Bands - Purplepuke - This Is The Day That You Die tab

intro:
distorted 
D||--------------| 
A||--------------|
F||--------------|
C||-32-0000------|
G||-32-0000------|x4
C||-32-0000------|

D||-------------------| 
A||-------------------|
F||-2-----------------|
C||-2-32-00000--------|
G||-0-32-00000--------|x3
C||-x-32-00000--------|

D||------------------------| 
A||------------------------|
F||-2----------------------|
C||-2-32-00000-00000-------|
G||-0-32-00000-00000-------|
C||-x-32-00000-00000-------|
pm------------------------->

verse:
clean

D||------0---------------| 
A||---1-----1------------|
F||-----2--2--2----------|
C||--2---------2---------|
G||-0--------------------|x4
C||----------------------|

D||-0--------------------| 
A||-1--------------------|
F||-2--------------------|
C||-2--------------------|
G||-0-*let ring*------------|
C||----------------------|

chorus:

D||----------------------------| 
A||----------------------------|
F||-------------------22222----|
C||-33333-22222-00000-22222----|
G||-33333-22222-00000-00000----|x3
C||-33333-22222-00000-xxxxx----|
[ Tab from: http://www.guitaretab.com/m/misc-unsigned-bands/180908.html ]
D||---------------| 
A||---------------|
F||---------------|
C||-0-3232-0-0----|
G||-0-3232-0-0----|
C||-0-3232-0-0----|
pm--------------->

repeat intro
repeat verse
repeat chorus

bridge:

D||-------00000------00000-----00000----------| 
A||-------11111------11111-----11111----------|
F||---2---22222------22222-----22222----------|
C||----2--22222-232--22222-232-22222----------|
G||-0---0-00000-232--00000-232-00000----------|x4
C||-------xxxxx-232--xxxxx-232-xxxxx----------|

D||----------------------------| 
A||----------------------------|
F||----------------------------|
C||-0-2323--00000000-----------|
G||-0-2323--00000000-*let ring*---|
C||-0-2323--00000000-----------|
pm---------------------------->

repeat chorus 

outro:

D||---------------| 
A||---------------|
F||---------------|
C||-0-3232-0-0----|
G||-0-3232-0-0----|
C||-0-3232-0-0----|

D||------------------------| 
A||------------------------|
F||-2----------------------|
C||-2-32-00000-00000-------|x4
G||-0-32-00000-00000-------|(4th time palm mute, and hold last chord)
C||-x-32-00000-00000-------|

Related for Purplepuke - This Is The Day That You Die tab
Advertisement will be closed in 10 seconds