Guitaretab - guitar tabs
Song name
# A B C D E F G H I J K L M N O P Q R S T U V W X Y Z

Misc Unsigned Bands - Purplepuke - Hold Your Breath tab


intro:

e|---5-----5-------------------------------------|
B|-----7-----7-----------------------------------|
G|-------6-----6---------------------------------|
D|-4--------------4--4---------------------------|
A|-----------------------------------------------|
E|-----------------------------------------------|  x3

e|---5------5-------------------------------------------|
B|-----7----7-------------------------------------------|
G|-------6--6-*let ring*--------------------------------|
D|-4--------4-------------------------------------------|
A|------------------------------------------------------|
E|------------------------------------------------------|

verse:

e|-55-5--22-2--22--2--22-3--------------------------------|
B|-55-5--22-2--33--3--33-3--------------------------------|
G|-66-6--22-2--22--2--44-4--------------------------------|
D|-77-7--44-4--00--0--44-4--------------------------------|x2
A|-77-7--44-4--xx--x--22-2--------------------------------|(2nd time hold last
E|-55-5--22-2--xx--x--xx-x--------------------------------|chord)

chorus:

e|-5555--2222--2222--2222-------------------------------------|
B|-5555--3333--3333--2222-------------------------------------|
G|-6666--4444--2222--2222-------------------------------------|
D|-7777--4444--0000--4444-------------------------------------|
A|-7777--2222--xxxx--4444-------------------------------------|
E|-5555--xxxx--xxxx--2222-------------------------------------|x2
[ Tab from: http://www.guitaretab.com/m/misc-unsigned-bands/180943.html ]
e|-2222-------------------------------------------|
B|-2222-------------------------------------------|
G|-2222-------------------------------------------|
D|-4444-------------------------------------------|(this part is palm muted)
A|-4444-------------------------------------------|
E|-2222-------------------------------------------|

repeat intro
repeat verse
repeat chorus

bridge:

e|-------------------------------------------------------|
B|-------------------------------------------------------|
G|-------------7-----4-----------------------------------|
D|-7-----4-----7-----4-----------------------------------|x2
A|-7-(x8)-4-(x8)-5-(x8)-2-(x8)---------------------------|(first time it's palm muted,
E|-5-----2-----x-----x-----------------------------------|not the second time)

repeat chorus

outro:

e|---5-----5-------------------------------------|
B|-----7-----7-----------------------------------|
G|-------6-----6---------------------------------|
D|-4--------------4------------------------------|x8
A|-----------------------------------------------|(gradually slow down and fade)
E|-----------------------------------------------|

e|-5----------------------------------------------------|
B|-7----------------------------------------------------|
G|-6-*let ring*-----------------------------------------|
D|-4----------------------------------------------------|
A|------------------------------------------------------|
E|------------------------------------------------------|
Related for Purplepuke - Hold Your Breath tab
Advertisement will be closed in 10 seconds