Song name
# A B C D E F G H I J K L M N O P Q R S T U V W X Y Z

Misc Unsigned Bands - Erus - Vida Rythm tab

Rythm Guitar:


e-444-4-4-5--5-55-|
B-555-5-5-5--5-55-|
G-666-6-6-6--6-66-|
D-666-6-6-7--7-77-|
A-444-4-4-7--7-77-|
E---------5--5-55-|

x4 and then:

e-0-0-0-0--0-0-0-0--|
B-0-0-0-0--0-0-0-0--|
G-0-0-0-0--0-0-0-0--|
D-2-2-2-2--2-2-2-2--|
A-2-2-2-2--3-3-3-3--|
E-0-0-0-0-----------|

x2

e-444-4-4-5--|
B-555-5-5-5--|
G-666-6-6-6--|
D-666-6-6-7--|
A-444-4-4-7--|
E---------5--|

x8

e-0-0-0-0--0-0-0-0--|
B-0-0-0-0--0-0-0-0--|
G-0-0-0-0--0-0-0-0--|
D-2-2-2-2--2-2-2-2--|
A-2-2-2-2--3-3-3-3--|
E-0-0-0-0-----------|

x2

e-444-4-4-5--5-55-|
B-555-5-5-5--5-55-|
G-666-6-6-6--6-66-|
D-666-6-6-7--7-77-|
A-444-4-4-7--7-77-|
E---------5--5-55-|

x8

with varations and pauses...
etc.
Tap to rate this tab
 
# A B C D E F G H I J K L M N O P Q R S T U V W X Y Z