Song name
# A B C D E F G H I J K L M N O P Q R S T U V W X Y Z

Misc Unsigned Bands - Elisha Gunderson - On Heavenly Shoulders tab

This is the second song i have written, and i hope and pray you enjoy.
the intro is acoustic with capo on 7th fret
listen closely to rhythem

e-0------/-0------/--------/--------/--------/--------/--------/--------/
B-3------/-0------/-0------/-0------/-0------/-0------/--------/--------/
G-2------/-2------/-0------/-0------/-0------/-0------/-0------/-0------/
D-0------/-2------/-2------/-0------/-2------/-2------/-0------/-0------/
A--------/-0------/-3------/-2------/-0------/-3------/-2------/-0------/
E--------/--------/--------/--------/--------/--------/-3------/-2------/

e-0------/
B-0------/
G-0------/
D-2------/
A-2------/
E-0------/

At this point change to electric, i would advise using the highest gain you can. palm 
on the x'ed notes. After mastering in normal stance, put the guitar behind your head and 
to town on your ax!!!

pick slidexx  xx     xx   xx     xx xx      xx  xx
e--------/--------/X2--------/X2--------/X2--------/X2
B--------/--3---3-/  --------/  --------/  --------/
G--------/--2---2-/  --2---2-/  ---0--0-/  ---0---0/
D--------/00--00--/  --2---2-/  ---2--2-/  ---0---0/
A-x------/--------/  00--00--/  -33-33--/  -22--22-/
E-x------/--------/  --------/  --------/  --------/

e--------/--------/--------/--------/  --------/--------/X2 then/--------|
B--------/--------/--------/--------/  --------/--------/d-tune /3~------|
G---2--2-/---0--0-/--------/--------/  --------/--------/in mid /2~------|
D---2--2-/---2--2-/---0--0-/---0--0-/  ---22-3-/---22-54/ chord:/0~------|
A-00-00--/-33-33--/---2--2-/---0--0-/  ---22-3-/---22-54/       /0~------|
E--------/--------/-33-33--/-22-22--/  -00--0--/-00--0--/       /0~------|
Tap to rate this tab
# A B C D E F G H I J K L M N O P Q R S T U V W X Y Z