Guitaretab - guitar tabs
Song name
# A B C D E F G H I J K L M N O P Q R S T U V W X Y Z

Misc Unsigned Bands - Epitaph - Whole tab

-----------------------------------------------------------------------------
			      Whole - Epitaph
-----------------------------------------------------------------------------
Tabbed by: Clayton Sackett
Email: cdsackett@gmail.com

Tuning: Standard

Intro  4x

e|--------------------------------------------------------------------------|
B|--------------------------------------------------------------------------|
G|--------------------------------------------------------------------------|
D|-------------------------------------------------------0~-----------------|
A|--9--9--9--12-9--9--10----9-9-9-10-9-9-9---7-7-7-7/9-7--------------------|
E|--10-10-10-10-10-10-10-0--7-7-7-7--7-7-7-0-5-5-5---------9/10~------------|

Chorus  2x
[ Tab from: http://www.guitaretab.com/m/misc-unsigned-bands/180959.html ]
e|--------------3-----/-----5-----------------------------------------------|
B|--------------3-----/-----5-----------------------------------------------|
G|--11----------4-----/-----6-----------------------------------------------|
D|--12----11----5-----/-----7-----------------------------------------------|
A|--9-----9-----5-----/-----7-----------------------------------------------|
E|--10----7-----3-----/-----5-----------------------------------------------|

Bridge  2x

e|--0-----0---------0---------5---------------------------------------------|
B|--0-----0---------8---------5---------------------------------------------|
G|--11----1---------0---------6---------------------------------------------|
D|--12----2---------9---------7---------------------------------------------|
A|--12----2----/----10--------7---------------------------------------------|
E|--10----0---------0---------5---------------------------------------------|



| /  slide up
| \  slide down
| h  hammer-on
| p  pull-off
| ~  vibrato
| +  harmonic
| x  Mute note
=============================================================================
Related for Epitaph - Whole tab