Song name
# A B C D E F G H I J K L M N O P Q R S T U V W X Y Z

Misc Unsigned Bands - Oh No - Heavy Skate 2 Theme tab

This is my first tab.... a lot of people wanted this tab, as did I, so I gfave it
my best shot. Let me know of any errors! Rip it up.
-DLight

Song: Heavy
Artist: Oh No
SKATE-2 THEME

(Originally performed by Selda Bagcan, titled Ince Ince)


           MAIN RIFF
e --------------------------------------------------------|
B --------------------------------------------------------|
G --------------------------------------------------------|
D --------------------------------------------------------|
A -------------------17---14-14-14-----17---14-14-14------|
E --------------------------------------------------------|


e --------------------------------------------------------|
B --------------------------------------------------------|
G --------------------------------------------------------|
D --------------------------------------------------------|
A ----------------------------14--------------------------| REPEAT
E ---17-17--15-15--14-14--12-12---------------------------|   x6


e --------------------------------------------------------|
B --------------------------------------------------------|
G --------------------------------------------------------|
D -------------------------------2------------------------|
A -------77-77-77-77---------7---2------------------------|
E ---------------------5-6-8-----0------------------------|
Tap to rate this tab
 
# A B C D E F G H I J K L M N O P Q R S T U V W X Y Z