Song name
# A B C D E F G H I J K L M N O P Q R S T U V W X Y Z

Misc Unsigned Bands - Fact 8 - Subtle Destrution tab

Song:Sutle Desruction
Band:Fact 8
Guitar 1:Billy Gerhardt-Rythem
Guitar 2:Michael Bruno-Lead

Key:
h:hamer on
p:pull off
/:slide up
\:slide down
~:vabrato
T:tap
b:bend
./PM:Palm mute
x:when you just set you fingers on the strigs and strum the note
<:pick slide down the neck


Intro
Guitar 1
e-----------------------------------------------------------------------|
b-----------------------------------------------------------------------|
g-----------------------------------------------------------------------|
d-----------------------------------------------------------------------|
a----9-9x-9-9-9x-----5-5x-5-5-5x-----7-7x-7-7-7x-----9-9x-9-9-9x--------|
E--7---7x-7-7-7x---3---3x-3-3-3x---5---5x-5-5-5x---7---7x-7-7-7x--------|

Guitar 2
e-----------------------------------------------------------------------|
b-----------------------------------------------------------------------|
g-----------------------------------------------------------------------|
d-----------------------------------------------------------------------|
a-----------------------------------------------------------------------|
E-----------------------------------------------------------------------|



guitar 1
e-----------------------------------------------------------------------|
b-----------------------------------------------------------------------|
g-----------------------------------------------------------------------|
d-----------------------------------------------------------------------|
a----9-9x-9-9-9x-----5-5x-5-5-5x-----7-7x-7-7-7x-----9-9x-9-9-9x--------|
E--7---7x-7-7-7x---3---3x-3-3-3x---5---5x-5-5-5x---7---7x-7-7-7x--------|

Guitar 2
e-----------------------------------------------------------------------|
b-----------------------------------------------------------------------|
g-----------------------------------------------------------------------|
d-----------------------------------------------------------------------|
a-----------------------------------------------------------------------|
E------------------------------------------------<<<<<<<<<<<<<<<<<<<<<--|



Main Riff
Guitar 1
e-----------------------------------------------------------------------|
b-----------------------------------------------------------------------|
g-----------------------------------------------------------------------|
d-----------------------------------------------------------------------|
a-9999999999999999-5555555555555555-7777777777777777---9-hold-out-------|
E-7777777777777777-3333333333333333-5555555555555555---7----------------|
  .. ... ... ..    .. ... ... ..    .. ... ... ..    
guiatr 2
PM..................................................
e-----------------------------------------------------------------------|
b-----------------------------------------------------------------------|
g-----------------------------------------------------------------------|
d-----------------------------------------------------------------------|
a-9999999999999999-5555555555555555-7777777777777777/9-7-5-7-5-7-5-7-9~-|X5
E-7777777777777777-3333333333333333-5555555555555555--------------------|



guitar 1
e-----------------------------------------------------------------------|
b-----------------------------------------------------------------------|
g-----------------------------------------------------------------------|
d-----------------------------------------------------------------------|
a---9\-\-\-\--5---------7-------9---------------------------------------|
E---7\-\-\-\--3---------5-------7---------------------------------------|


Guitar 2
e-----------------------------------------------------------------------|
b-----------------------------------------------------------------------|
g-----------------------------------------------------------------------|
d-----------------------------------------------------------------------|x2
a-----------------------------------------------------------------------|
E-----9999-9----9999-9---9999-9---9999-9--------------------------------|
      ....      ....     ....     ....



Guitar 1
e-----------------------------------------------------------------------|
b-----------------------------------------------------------------------|
g-----------------------------------------------------------------------|
d-----------------------------------------------------------------------|
a-9999999999999999-5555555555555555-7777777777777777---9-hold-out-------|
E-7777777777777777-3333333333333333-5555555555555555---7----------------|
  .. ... ... ..    .. ... ... ..    .. ... ... ..    
guiatr 2
PM..................................................
e-----------------------------------------------------------------------|
b-----------------------------------------------------------------------|
g-----------------------------------------------------------------------|
d-----------------------------------------------------------------------|
a-9999999999999999-5555555555555555-7777777777777777/9-7-5-7-5-7-5-7-9~-|X2
E-7777777777777777-3333333333333333-5555555555555555--------------------|


Drum Solo
about (45 Sec)




Guitar 1
e-----------------------------------------------------------------------|
b-----------------------------------------------------------------------|
g-----------------------------------------------------------------------|
d-----------------------------------------------------------------------|
a-----------------------------------------------------------------------|
E-----------------------------------------------------------------------|
                                                     
guiatr 2                                                      
e-----------------------------------------------------------------------|
b-----------------------------------------------------------------------|
g-----------------------------------------------------------------------|
d--<<<<<<<<<<<<<<-------------------------------------------------------|
a--<<<<<<<<<<<<<<-------------------------------------------------------|
E-----------------------------------------------------------------------|




Guitar 1
e-----------------------------------------------------------------------|
b-----------------------------------------------------------------------|
g-----------------------------------------------------------------------|
d-----------------------------------------------------------------------|
a-9999999999999999-5555555555555555-7777777777777777---9-hold-out-------|
E-7777777777777777-3333333333333333-5555555555555555---7----------------|
  .. ... ... ..    .. ... ... ..    .. ... ... ..    
guiatr 2
PM..................................................
e-----------------------------------------------------------------------|
b-----------------------------------------------------------------------|
g-----------------------------------------------------------------------|
d-----------------------------------------------------------------------|
a-9999999999999999-5555555555555555-7777777777777777/9-7-5-7-5-7-5-7-9~-|X2
E-7777777777777777-3333333333333333-5555555555555555--------------------|


Solo
guitar 1
e-----------------------------------------------------------------------|
b-----------------------------------------------------------------------|
g-----------------------------------------------------------------------|
d-----------------------------------------------------------------------|
a--9---------------5---------------7---------------9--------------------|
E--7---------------3---------------5---------------7--------------------|

guitar 2
e--------------17-15-14----15-14----------------------------------------|
b--////15---14----------17-------17-15-14----14-------------------------|
g-----------------------------------------16----16-14\\\\---------------|
d-----------------------------------------------------------------------|x3
a-----------------------------------------------------------------------|
E-----------------------------------------------------------------------|

guitar 1
e-----------------------------------------------------------------------|
b-----------------------------------------------------------------------|
g-----------------------------------------------------------------------|
d-----------------------------------------------------------------------|
a--9---------------5---------------7---------------9--------------------|
E--7---------------3---------------5---------------7--------------------|

guitar 2
e-----------------14-17b-15b~~~-----------------------------------------|
b--------14-15-17-------------------------------------------------------|
g--14-17----------------------------------------------------------------|
d-----------------------------------------------------------------------|
a-----------------------------------------------------------------------|
E-----------------------------------------------------------------------|

Guitar 1
e-----------------------------------------------------------------------|
b-----------------------------------------------------------------------|
g-----------------------------------------------------------------------|
d-----------------------------------------------------------------------|
a--9---------------5---------------7---------------9--------------------|
E--7---------------3---------------5---------------7--------------------|

guitar 2
e--14-14-14-17-15-14-17-15-14-19-17-14-19-17-14-------------------------|
b-----------------------------------------------------------------------|
g-----------------------------------------------------------------------|
d-----------------------------------------------------------------------|
a-----------------------------------------------------------------------|
E-----------------------------------------------------------------------|


Guitar 1
e-----------------------------------------------------------------------|
b-----------------------------------------------------------------------|
g-----------------------------------------------------------------------|
d-----------------------------------------------------------------------|
a--9---------------5---------------7---------------9--------------------|
E--7---------------3---------------5---------------7--------------------|

guitar 2
e-14h15-T17-14h15-T17-14h15-T17-14h15-T17-14h15-T17-14h15-T17-14h15-T17-|
b-----------------------------------------------------------------------|
g-----------------------------------------------------------------------|
d-----------------------------------------------------------------------|
a-----------------------------------------------------------------------|
E-----------------------------------------------------------------------|

Guitar 1
e-----------------------------------------------------------------------|
b-----------------------------------------------------------------------|
g-----------------------------------------------------------------------|
d-----------------------------------------------------------------------|
a--9---------------5---------------7---------------9--------------------|
E--7---------------3---------------5---------------7--------------------|

guitar 2
e-14h15-T17-14h15-T17-14h15-T17-14h15-T17----15b-15b~-15b~~~------------|
b-----------------------------------------------------------------------|
g-----------------------------------------------------------------------|
d-----------------------------------------------------------------------|
a-----------------------------------------------------------------------|
E-----------------------------------------------------------------------|

Guitar 1
e-----------------------------------------------------------------------|
b-----------------------------------------------------------------------|
g-----------------------------------------------------------------------|
d-----------------------------------------------------------------------|
a--9---------------5---------------7---------------9--------------------|
E--7---------------3---------------5---------------7--------------------|

guitar 2
e--17-15-14----14-15----------------------------------------------------|
b-----------17-------17-15-14----14------------/////15----14~~~~~~~-----|
g-----------------------------16----16-14\\\\---------------------------|
d-----------------------------------------------------------------------|
a-----------------------------------------------------------------------|
E-----------------------------------------------------------------------|


Guitar 1
e-----------------------------------------------------------------------|
b-----------------------------------------------------------------------|
g-----------------------------------------------------------------------|
d-----------------------------------------------------------------------|
a--9---------------5---------------7---------------9--------------------|
E--7---------------3---------------5---------------7--------------------|

guitar 2
e-----17-15-14----14-----17-15-14----14----17-15-14----14--17--15b~-----|
b--12----------17-----12----------17----12----------17------------------|
g-----------------------------------------------------------------------|
d-----------------------------------------------------------------------|
a-----------------------------------------------------------------------|
E-----------------------------------------------------------------------|

Guitar 1
e-----------------------------------------------------------------------|
b-----------------------------------------------------------------------|
g-----------------------------------------------------------------------|
d-----------------------------------------------------------------------|
a--9---------------5---------------7---------------9--------------------|
E--7---------------3---------------5---------------7--------------------|

guitar 2
e-----17-15-14----14-(17-15-14----15-14-17-15-14----15-14)x3--15b-------|
b--12----------17--------------17----------------17---------------------|
g-----------------------------------------------------------------------|
d-----------------------------------------------------------------------|
a-----------------------------------------------------------------------|
E-----------------------------------------------------------------------|


Guitar 1
e-----------------------------------------------------------------------|
b-----------------------------------------------------------------------|
g-----------------------------------------------------------------------|
d-----------------------------------------------------------------------|
a--9---------------5---------------7---------------9--------------------|
E--7---------------3---------------5---------------7--------------------|

guitar 2
e---17-15-14------------------------------------------------------------|
b------------17-15-14---12~~~~~-----------------------------------------|
g-----------------------------------------------------------------------|
d-----------------------------------------------------------------------|
a-----------------------------------------------------------------------|
E-----------------------------------------------------------------------|


Main Riff
Guitar 1
e-----------------------------------------------------------------------|
b-----------------------------------------------------------------------|
g-----------------------------------------------------------------------|
d-----------------------------------------------------------------------|
a-9999999999999999-5555555555555555-7777777777777777---9-hold-out-------|
E-7777777777777777-3333333333333333-5555555555555555---7----------------|
  .. ... ... ..    .. ... ... ..    .. ... ... ..    
guiatr 2
PM..................................................
e-----------------------------------------------------------------------|
b-----------------------------------------------------------------------|
g-----------------------------------------------------------------------|
d-----------------------------------------------------------------------|
a-9999999999999999-5555555555555555-7777777777777777/9-7-5-7-5-7-5-7-9~-|X5
E-7777777777777777-3333333333333333-5555555555555555--------------------|



Guitar 1
e-----------------------------------------------------------------------|
b-----------------------------------------------------------------------|
g-----------------------------------------------------------------------|
d-----------------------------------------------------------------------|
a-9-9x9x-9-9x9x-9-9x9x-9-9x9x--9-9-9-9----------------------------------|
E-7-7x7x-7-7x7x-7-7x7x-7-7x7x--7-7-7-7----------------------------------|
                                                                
guiatr 2                                                            
e-----------------------------------------------------------------------|
b-----------------------------------------------------------------------|
g-----------------------------------------------------------------------|
d-----------------------------------------------------------------------|
a-9-9x9x-9-9x9x-9-9x9x-9-9x9x--9-9-9-9----------------------------------|
E-7-7x7x-7-7x7x-7-7x7x-7-7x7x--7-7-7-7----------------------------------|



Guitar 1
e-----------------------------------------------------------------------|
b-----------------------------------------------------------------------|
g-----------------------------------------------------------------------|
d-----------------------------------------------------------------------|
a-5-5x5x-5-5x5x-5-5x5x-5-5x5x--5-5-5-5----------------------------------|
E-3-3x3x-3-3x3x-3-3x3x-3-3x3x--3-3-3-3----------------------------------|
                                                                
Guitar 2
e-----------------------------------------------------------------------|
b-----------------------------------------------------------------------|
g-----------------------------------------------------------------------|
d-----------------------------------------------------------------------|
a-5-5x5x-5-5x5x-5-5x5x-5-5x5x--5-5-5-5----------------------------------|
E-3-3x3x-3-3x3x-3-3x3x-3-3x3x--3-3-3-3----------------------------------|


Guitar 1
e-----------------------------------------------------------------------|
b-----------------------------------------------------------------------|
g-----------------------------------------------------------------------|
d-----------------------------------------------------------------------|
a-7-7x7x-7-7x7x-7-7x7x-7-7x7x--7-7-7-7----------------------------------|
E-5-5x3x-5-5x5x-5-5x5x-5-5x3x--5-5-5-5----------------------------------|
                                                                
Guitar 2
e-----------------------------------------------------------------------|
b-----------------------------------------------------------------------|
g-----------------------------------------------------------------------|
d-----------------------------------------------------------------------|
a-7-7x7x-7-7x7x-7-7x7x-7-7x7x--7-7-7-7----------------------------------|
E-5-5x3x-5-5x5x-5-5x5x-5-5x3x--5-5-5-5----------------------------------|


Guitar 1
e-----------------------------------------------------------------------|
b-----------------------------------------------------------------------|
g-----------------------------------------------------------------------|
d-----------------------------------------------------------------------|
a-9-9x9x-9-9x9x-9-9x9x-9-9x9x--9-9-9-9----------------------------------|
E-7-7x7x-7-7x7x-7-7x7x-7-7x7x--7-7-7-7----------------------------------|
                                                                
Guitar 2
e-14-17-15-14-17-15-14-17-15-14-17-15-14-17-15-14-17-15--19b-17b--------|
b-----------------------------------------------------------------------|
g-----------------------------------------------------------------------|
d-----------------------------------------------------------------------|
a-----------------------------------------------------------------------|
E-----------------------------------------------------------------------|


Main Riff
Guitar 1
e-----------------------------------------------------------------------|
b-----------------------------------------------------------------------|
g-----------------------------------------------------------------------|
d-----------------------------------------------------------------------|
a-9999999999999999-5555555555555555-7777777777777777---9-hold-out-------|
E-7777777777777777-3333333333333333-5555555555555555---7----------------|
  .. ... ... ..    .. ... ... ..    .. ... ... ..    
guiatr 2
PM..................................................
e-----------------------------------------------------------------------|
b-----------------------------------------------------------------------|
g-----------------------------------------------------------------------|
d-----------------------------------------------------------------------|
a-9999999999999999-5555555555555555-7777777777777777/9-7-5-7-5-7-5-7-9~-|X5
E-7777777777777777-3333333333333333-5555555555555555--------------------|


ENDING
Guitar 1
e-----------------------------------------------------------------------|
b-----------------------------------------------------------------------|
g-----------------------------------------------------------------------|
d-----------------------------------------------------------------------|
a--9---7---5--------------------3---------------------------------------|
E--7---5---3--------------------5---------------------------------------|
                                                      
guiatr 2                                                       
e-----------------------------------------------------------------------|
b-----------------------------------------------------------------------|
g-----------------------------------------------------------------------|
d-----------------------------------------------------------------------|
a--9---7---5------9-7-5---------3---------------------------------------|
E--7---5---3------------7-5-3---5---------------------------------------|




Thats it thanks for looking us up, 
this is the longest song i have tabed so 
for so i hope you liked it.
Thanks
        P.S. it took For ever!!!







Tap to rate this tab
 
# A B C D E F G H I J K L M N O P Q R S T U V W X Y Z