Song name
# A B C D E F G H I J K L M N O P Q R S T U V W X Y Z

Misc Unsigned Bands - The Colour Of Maybe - Lat00rb tab

|-------------------------------------------------|
|-------------------------------------------------|
|-------------------------------------------------|
|--0--0-0--0-3--3-3--3-0--0-0-0-------------------|
|--0--0-0--0-3--3-3--3-0--0-0-0-------------------|
|--0--0-0--0-3--3-3--3-0--0-0-0--0-2-3-0-2-3-0-2--|
      * *  *    * *  *    * * *  * * * * * * * *


|----------------------------------------------------------------|
|----------------------------------------------------------------|
|----------------------------------------------------------------|
|--0--0-0--0--0-0--0-0--3--3-3--3--3-3--3-3--0--0-0--0--0-0--0-0-|
|--0--0-0--0--0-0--0-0--3--3-3--3--3-3--3-3--0--0-0--0--0-0--0-0-|
|--0--0-0--0--0-0--0-0--3--3-3--3--3-3--3-3--0--0-0--0--0-0--0-0-|
      * *     * *    *     * *     * *    *     * *     * *    *


|------------------------------| |-----------------------------------------|
|------------------------------| |-----------------------------------------|
|------------------------------| |-----------------------------------------|
|------------------------------| |--0-000--0-000--0-0--3-333--3-333--3-3-0-|
|------------------------------| |--0-000--0-000--0-0--3-333--3-333--3-3-0-|
|--0h2h3--0h2h3--0h2h3--0h2h3--| |--0-000--0-000--0-0--3-333--3-333--3-3-0-|
                                      ***    ***    *    ***    ***    *

|----------------------------------------------------------------|
|----------------------------------------------------------------|
|----------------------------------------------------------------|
|--000--000--000--000--000--000--000--000---0--0-0--0--0-0--0-0--|
|--000--000--000--000--000--000--000--000---0--0-0--0--0-0--0-0--|
|--000--000--000--000--000--000--000--000---0--0-0--0--0-0--0-0--|
   ***  ***  ***  ***  ***  ***  ***  ***      * *     * *    *

|------------------------------------------------------------------|
|------------------------------------------------------------------|
|------------------------------------------------------------------|
|--0--0-0--0--0-0--0-0---0--0-0--0--0-0--0-0--00000000--87h8--8p5--|
|--0--0-0--0--0-0--0-0---0--0-0--0--0-0--0-0--00000000--87h8--8p5--|
|--0--0-0--0--0-0--0-0---0--0-0--0--0-0--0-0--00000000--87h8--8p5--|
      * *     * *    *      * *     * *    *  ********

|-------------------------------------------------------------------|
|-------------------------------------------------------------------|
|-------------------------------------------------------------------|
|--0--0-0--0--0-0--0-0---0--0-0--0--0-0--0-0---0--0-0--0--0-0--0-0--|
|--0--0-0--0--0-0--0-0---0--0-0--0--0-0--0-0---0--0-0--0--0-0--0-0--|
|--0--0-0--0--0-0--0-0---0--0-0--0--0-0--0-0---0--0-0--0--0-0--0-0--|
      * *     * *    *      * *     * *    *      * *     * *    *

|------------------------------------------------------|
|------------------------------------------------------|
|---------------------9------------------5---12---7----|
|--0000000000000000---7-lala, strumming--3---10---5----|
|--0000000000000000---7------------------3---10---5----|
|--0000000000000000------------------------------------|
   ****************

|----------------------------------------------------------|
|----------------------------------------------------------|
|----------------------------------------------------------|
|--0--0--0--0---0--0--0--0---0--0--0--0---0-5-3-2-1-2-3-5--|
|--0--0--0--0---0--0--0--0---0--0--0--0---0-5-3-2-1-2-3-5--|
|--0--0--0--0---0--0--0--0---0--0--0--0---0-5-3-2-1-2-3-5--|
   *  *  *  *   *  *  *  *   *  *  *  *

|----------------------| |------------|
|----------------------| |------------|
|----------------------| |------------|
|--0-00--000000--0-00--| |--0---5555--|
|--0-00--000000--0-00--| |--0---3333--|
|--0-00--000000--0-00--| |--0---------|
   * **  ******  * **       *

|-----------------------------------|
|-----------------------------------|
|-----------------------------------|
|--0-00--000000--0-00---0-000--0-0--|
|--0-00--000000--0-00---0-000--0-0--|
|--0-00--000000--0-00---0-000--0-0--|
   * **  ******  * **   * ***  * *

you can figure it out [=
Tap to rate this tab
 
# A B C D E F G H I J K L M N O P Q R S T U V W X Y Z