Song name
# A B C D E F G H I J K L M N O P Q R S T U V W X Y Z

Misc Unsigned Bands - 3 Nailz - Breathe For Me tab

                            Intro (Heavy Distortion

E|----------------------------------------------------------------|
B|----------------------------------------------------------------|
G|----------------------------------------------------------------|
D|--------------------------------------5~~~~~--3-2-0-------------| X1
A|---5-8-7----5-8-7----10-8-7----5-8-7--5~~~~~--3-2-0-------------|
D|-0--------0--------0---------0--------5~~~~~--3-2-0-------------|

                              Verse (Heavy Distortion)

E|----------------------------------------------------------------|
B|----------------------------------------------------------------|
G|----------------------------------------------------------------|
D|--------------------------------------5~~~~~--3-2-0--0----------| X2
A|---5-8-7----5-8-7----5-8-7----5-8-7---5~~~~~--3-2-0--0----------|
D|-0--------0--------0---------0--------5~~~~~--3-2-0--0----------|

                              Chorus (Heavy Distortion)

E|----------------------------------------------------------------|
B|----------------------------------------------------------------|
G|-------7-7-7-9-9-11-11------------------------------------------|
D|-0--3--5-5-5-7-7-9--9----0-0--5-5-5--3-3-3-3-3------------------| X2
A|-0--3--5-5-5-7-7-9--9----0-0--5-5-5--3-3-3-3-3------------------|
D|-0--3--5-5-5-7-7-9--9----0-0--5-5-5--3-3-3-3-3------------------|
                                        * * * * pm the 2nd time

                                Verse 2 (Heavy Distortion)


E|-------------------------------------------------------------------------|
B|-------------------------------------------------------------------------|
G|-------------------------------------------------------------------------|
D|-----------------------------------------------------5~~~~~--3-2-0-------| X3
A|---555888777----555888777----555888777----555888777--5~~~~~--3-2-0-------|
D|-0------------0------------0------------0------------5~~~~~--3-2-0-------|
    Trem pick the 5 8 7

                           Chorus (Heavy Distortion)

E|----------------------------------------------------------------|
B|----------------------------------------------------------------|
G|-------7-7-7-9-9-11-11------------------------------------------|
D|-0--3--5-5-5-7-7-9--9----0-0--5-5-5--3-3-3-3-3------------------| X4
A|-0--3--5-5-5-7-7-9--9----0-0--5-5-5--3-3-3-3-3------------------|
D|-0--3--5-5-5-7-7-9--9----0-0--5-5-5--3-3-3-3-3------------------|
                                        * * * * pm the 2nd time

                             Interlude (clean)                  

E|--------------------------------------|-------------|
B|--------------------------------------|-------------|
G|-----5-------7-------9---7-9-7--------|-------------|
D|---5---5---7---7---9---9-------9------|--7-7-7-7-7--| X4
A|-3-------5-------7--------------------|--7-7-7-7-7--|
D|--------------------------------------|--5-5-5-5-5--|
                                           this only the fourth time
                                                (Distortion)

         End the song with the verse but stop quickly after the open string

Intro     X1
Verse     X2
Chorus    X2
Verse     X3
Chorus    X4
Interlude X4
Chorus    X2
Outro     X1
Tap to rate this tab
# A B C D E F G H I J K L M N O P Q R S T U V W X Y Z