Song name
# A B C D E F G H I J K L M N O P Q R S T U V W X Y Z

Misc Unsigned Bands - Easy For You - By Timmy Hugh And The Oneders tab

Intro-damus
|------------------------------------|
|------------------------------------|
|--5--/4--/5--/2-4-/5--/4--/5--/5-7--|
|-------------------------------3-5--|
|--3-------0--------3-------0--------|
|------3-------1-3------3------------|

Verse Part 1
|--------------------------------------|
|--------------------------------------|
|----5-5-5/4--4-4-4/5--5-5-5/2-2-2-4/5-|
|--------------------------------------|
|--3--3-3------------0--0-0------------|
|-----------3--3-3------------1-1-3----|

Verse Fart 2
|------------------------------------------|
|------------------------------------------|
|----5-5-5/4--4-4-4/5--5-5-5-5---5-----7/5-|
|-----------------------------3-3-3-5-5----|
|--3--3-3------------0--0-0----------------|
|-----------3--3-3-------------------------|

Chorus
|------------------------------------|
|------------------------------------|
|------------------------------------|
|--5555550----------------------3/5--|
|--33333305555555/7777777/3333333/5--|
|---------333333--555555--111111-----|
Tap to rate this tab
# A B C D E F G H I J K L M N O P Q R S T U V W X Y Z