Song name
# A B C D E F G H I J K L M N O P Q R S T U V W X Y Z

Misc Unsigned Bands - Purplepuke - Knee Deep tab

Help us improve GuitareTab! Take a short survey!
Only have the intro so far; it's all distorted

e||-----11-----11-----11-----11--------9-----9-----9-----9---|
B||-9-9----9-9----9-9----9-9----9--9-9---9-9---9-9---9-9---9-|
G||----------------------------------------------------------|
D||----------------------------------------------------------|
A||----------------------------------------------------------|
E||----------------------------------------------------------|

e||-----7------7------7------7----------------|
B||-9-9----9-9----9-9----9-9---9999-9999------|
G||-------------------------------------------|
D||-------------------------------------------|
A||-------------------------------------------|
E||-------------------------------------------|

e||-----11-----11-----11-----11--------9-----9-----9-----9---|
B||-9-9----9-9----9-9----9-9----9--9-9---9-9---9-9---9-9---9-|
G||----------------------------------------------------------|
D||----------------------------------------------------------|
A||----------------------------------------------------------|
E||----------------------------------------------------------|

e||-----7------7------7------7----------------|
B||-9-9----9-9----9-9----9-9---9999-9999------|
G||-------------------------------------------|
D||-------------------------------------------|
A||-------------------------------------------|
E||-------------------------------------------|

e||-----11-----11-----11-----11-----9-----9-----9-----9---|
B||-7-7----7-7----7-7----7-7----7-7---7-7---7-7---7-7-----|
G||-------------------------------------------------------|
D||-------------------------------------------------------|
A||-------------------------------------------------------|
E||-------------------------------------------------------|

e||-----7--------7--------9-------------------------------------|
B||-7-7---7--9-9---9--7-7---7--9999-9999------------------------|
G||-------------------------------------------------------------|
D||-------------------------------------------------------------|
A||-------------------------------------------------------------|
E||-------------------------------------------------------------|

e||-----11-----11-----11-----11--------9-----9-----9-----9---|
B||-9-9----9-9----9-9----9-9----9--9-9---9-9---9-9---9-9-----|
G||----------------------------------------------------------|
D||----------------------------------------------------------|
A||----------------------------------------------------------|
E||----------------------------------------------------------|

e||-----7------7------7------7----------------|
B||-9-9----9-9----9-9----9-9---9b11-----------|
G||-------------------------------------------|
D||-------------------------------------------|
A||-------------------------------------------|(hold the last 11)
E||-------------------------------------------|

I know it seems long but it's supposed to be played quickly.
Related for Purplepuke - Knee Deep tab