Song name
# A B C D E F G H I J K L M N O P Q R S T U V W X Y Z

Misc Unsigned Bands - Anthony - Natashas Song tab

This was written for my girl friend. She is the best person in the world and I don't
what I would do without her. This is for her.

And Please. If you don't like it then screw you. I just started playing guitar 3 months ago.

e-------3------|
B-----3---3----|
G---0-------0--|
D--------------|(repeat)
A-3-----------3|
E--------------|

e-------2------|
B-----3---3----|
G---0-------0--|
D--------------| (repeat)
A-3-----------3|
E--------------|

e-------0------|
B-----3---3----|
G---0-------0--|
D--------------| (repeat)
A-3-----------3|
E--------------|

e-------2------|
B-----3---3----|
G---0-------0--|
D--------------| (repeat)
A-3-----------3|
E--------------|

e-------3------|
B-----3---3----|
G---0-------0--|
D--------------| (repeat)
A-3-----------3|
E--------------|


e-------5------|
B-----3---3----|
G---0-------0--|
D--------------| (repeat)
A-3-----------3|
E--------------|

e-------3|
B-----3--|
G---0----|
D--------| (repeat)
A-3------|
E--------|

e--------------|
B-------0------|
G-----0---0----|
D---0-------0--| (repeat)
A-3-----------3|
E--------------|

e--------------|
B-------3------|
G-----0---0----|
D---0-------0--| (repeat)
A-3-----------3|
E--------------|

e---------3--------|
B-------0---0------|
G-----0-------0----|
D---3-----------3--| (repeat)
A------------------|
E------------------|

e---------0--------|
B-------3---3------|
G-----0-------0----|
D---3-----------3--| (repeat)
A------------------|
E------------------|

e---------3--------|
B-------3---3------|
G-----0-------0----|
D---0-----------0--| (repeat)
A------------------|
E------------------|

e---------0--------|
B-------3---3------|
G-----0-------0----|
D---0-----------0--| (repeat)
A------------------|
E------------------|


e---------3--------|
B-------0---0------|
G-----0-------0----|
D---0-----------0--| (repeat)and end on the 3. Don't go back down at all.
A------------------|
E------------------|

Lyrics (and just to let everyone know i'm not very good with lyrics.

I remember our first kiss
it was the beginning of my new life
That was the one moment i miss

We stood under that light
We held hands and drew in tight
and we kissed for the first time

I love your eyes
I love your smile
I wish I could have stayed for awhile
I knew then
that we would be together
for the better
part of our lives

We spent so much time together
we couldn't stand to be alone
And when we were, we talked until we could no more

A few months past by
Before I realized
That I loved you and could never say "Goodbye"

I love your eyes
I love your smile
I wish I could have stayed for awhile
I knew then
that we would be together
for the better
part of our lives

And that, my baby, is what I miss most
That touch of your lips on mine
so soft and perfect

It's like we were meant to be together
the way our lips fit close and tight.

(normal voice)
"And the way our hands fit perfectly, like the are
a missing piece to a puzzle that have finally been
brought together."

I love your eyes
I love your smile
I wish I could have stayed for awhile
I knew then
that we would be together
for the better
part of our lives

"But the one thing I love most, is you.
Your my Baby, and no matter what anyone says, I will always Love You."
----------------------------------------------------------------------------------

You can use the first part of the song to make some really good sounding chords. But
don't fit the song. Feel free to take this song and record it. I'd really like to hear some
you play it. E-mail to me some recordings of you singing and playing this song at:
 soccer_18_aw_shadowlance@yahoo.com.

Thanks so much.
Tap to rate this tab
# A B C D E F G H I J K L M N O P Q R S T U V W X Y Z