Song name
# A B C D E F G H I J K L M N O P Q R S T U V W X Y Z

Misc Unsigned Bands - Tyler Herrin And Me - Time To Say Goodbye tab

Help us improve GuitareTab! Take a short survey!
                               TIME TO SAY GOODBYE

Right this is my version of Tyler Herrins song but ive changed a few bits etc cause i 
it was a good base for another song.
The words in this version are the same though i think. :P
Have funsies :D

Capo On 6th , Standard Tuning


 Intro
        x4           x3
|-0-3-0----0-0-0-0-0-------------*|
|-1-1-1----1-3-1-0-1-------------*|
|-0-0-0----0-0-0-0-0------0-0----*|
|-2-2-2----2-2-2-2-2----2-2p0----*|
|-3-3-3----2-2-2-2-2----2--------*|
|--------------------------------*|


Verse/Chorus 1

|-----3-------------3-----------3-----------3-----------3-----------3---|
|-1-----1---1-1-------1---1-1-----1---1-1-----1---1-1-----1---1-1-----1-|
|---0-----0-------0-----0-----0-----0-----0-----0-----0-----0-----0-----|
|-----------------------------------------------------------------------|
|-3-----------0h2-----------0-------------------------------------------|
|---------------------------------------3-----------1-----------0-------|


|---------3-----------3----------*|
|---1-1-----1---1-0-----1---1----*|
|-0-----0-----0-----0-----0------*|
|--------------------------------*|
|-----1-----------2--------------*|
|--------------------------------*|


Chorus 2

|-3--3--3--3--3--3--3--3----*|
|-1--1--1--1--1--1--1--0----*|
|-0--0--0--0--0--0--0--0----*|
|-2--0--0--0--0--0--0--0----*|
|-3--2--0--0--0--0--0--2----*|
|----------3--1--0--1-------*|


Outro
                     x2                  x2
|-0----0----0----0-----|-0---------:-------|-3-0------*|
|-1h3--1h3--1h3--1h3---|-1-3-1-0h1-:-------|-1-1-1----*|
|-0----0----0----0-----|-0---------:-------|-0-0-0----*|
|-2----0----0----0-----|-0---------:-------|-2-2-2----*|
|-3----2----0----2-----|-3---------:-2-0-2-|-3-3------*|
|----------------------|-----------:-------|----------*|


Intro-Verse-Verse 2-Chorus-Verse 3-Chorus-Chorus 2-Chorus 2-Outro


Verse 1
I never thought it would hurt so bad
to walk away from all i had
but now its far way
Id wake up and it'd be there
to wash away all of my cares
but now im on my way

Verse 2
Im gonna miss all the girls, pricey shoes and fancy pearls
It'll never be the same
and all the nights i didn't care
Who was here and who was there
i want them back so bad

Cause i have lost what i have found
And I've yet to break ground
A once a head for me
And i have had my final try
Held my head but not too high
And now its plain to see
It's time to say goodbye

Verse 3
I never thought the sun would set
Cant make a mess of me just yet
Can't do it once again
I always thought that you would stay
Until the day i walked away
But now it's time to leave

Chorus
Cause i have lost what i have found
And I've yet to break ground
A once a head for me
And i have had my final try
Held my head but not too high
And now its plain to see

Chorus 2
Cause i have lost what i have found
And I've yet to break ground
A once a head for me
And i have had my final try
Held my head but not too high
And now its plain to see
It's time to say goodbye

*************************************************************************
Related for Tyler Herrin And Me - Time To Say Goodbye tab