Guitaretab - guitar tabs
Song name
# A B C D E F G H I J K L M N O P Q R S T U V W X Y Z

Misc Unsigned Bands - The End Of Me - El Ocaso De Un Amor Sin Sentido tab

The End Of Me  El Ocaso de Un Amor Sin Sentido

Riff 1
E|-------------------------------------------------------------|
B|----5-6-8-6-5-0---5-6-8-6-5-0----5-6-8-6-5-0----5-6-8-6-5-0--|
G|-------------------------------------------------------------|
D|-33------------55-------------77-------------55--------------|X2
A|-33------------55-------------77-------------55--------------|
D|-33------------55-------------77-------------55--------------|

Riff 2
E|---------------------------------------|
B|---------------------------------------|
G|---------------------------------------|
D|-3------5------7------8------10--------|
A|-3(x32)-5(x32)-7(x32)-8(x16)-10(x16)---|
D|-3------5------7------8------10--------|

Riff 3
E|------------------------------------------|
B|------------------------------------------|
G|-10------12-----14-----15-----17----------|
D|-x-(x32)x(x32)x(x32)x(x16)x(x16)---0--|
A|-8-------10-----12-----13-----15-------0--|
D|---------------------------------------0--|
[ Tab from: http://www.guitaretab.com/m/misc-unsigned-bands/181317.html ]
Riff 4
E|-------------------------------------|
B|-------------------------------------|
G|-------------------------------------|
D|-0-0-8-7-0-7-5-0-5-3-0-2-3-0-2-3-----|x8 o x10, no las conte xD
A|-0-0-8-7-0-7-5-0-5-3-0-2-3-0-2-3-----|
D|-0-0-8-7-0-7-5-0-5-3-0-2-3-0-2-3-----|

Riff 5
E|--------------------------------------|
B|--------------------------------------|
G|--------------------------------------|
D|-3------5------10------8------7-------|x2
A|-3(x32)-5(x32)-10(x32)-8(x16)-7(x16)--|
D|-3------5------10------8------7-------|

Repetir Riff 2 x2

Riff 6 (Break)
E|------------------------------------|   E|---------------|
B|------------------------------------|   B|---------------|
G|------------------------------------|   G|---------------|
D|-00--0000--0000--0000000000000000---|x8 D|-0-------------|
A|-00--0000--0000--0000000000000000---|   A|-0-------------|
D|-00--0000--0000--0000000000000000---|   D|-0-(PickSlide)-|
   **  ****  ****  ****************

Repetir Riff 4

Final:
E|--------------------------|
B|--------------------------|
G|--------------------------|
D|-8---7---5---3---2---0----|
A|-8---7---5---3---2---0----|
D|-8---7---5---3---2---0----|

Related for The End Of Me - El Ocaso De Un Amor Sin Sentido tab