Guitaretab - guitar tabs
Song name
# A B C D E F G H I J K L M N O P Q R S T U V W X Y Z

Misc Unsigned Bands - The End Of Me - Evitable Realidad tab

The End Of Me  Evitable Realidad

Riff 1
E|----------------------------------------------|
B|----------------------------------------------|
G|----------------------------------------------|
D|-0----------0000000000000000000000000000000-0-|
A|-0----------0000000000000000000000000000000-0-|
D|-0----------0000000000000000000000000000000-0-|
              *******************************

Riff 2
E|-------------------------|
B|-------------------------|
G|-------------------------|
D|-8-----7-----2-----3-----|x2
A|-8(x8)-7(x8)-2(x8)-3(x8)-|
D|-8-----7-----2-----3-----|

Riff 3
E|---------------------------------|
B|---------------------------------|
G|---------------------------------|
D|-0-0-0-3-2-0-8----0-0-0-3-2-0-7--|x3
A|-0-0-0-3-2-0-8----0-0-0-3-2-0-7--|
D|-0-0-0-3-2-0-8----0-0-0-3-2-0-7--|
   * * *            * * *
[ Tab from: http://www.guitaretab.com/m/misc-unsigned-bands/181318.html ]
Riff 3 continuacion:
E|------------------------------|
B|------------------------------|
G|------------------------------|
D|-0-0-0-3-2-0-8--0-0-0-3-2-0---|
A|-0-0-0-3-2-0-8--0-0-0-3-2-0---|
D|-0-0-0-3-2-0-8--0-0-0-3-2-0---|
   * * *          * * *

Estribillo
E|-----------------------------------|
B|-----------------------------------|
G|-----------------------------------|
D|-8-----10-----7-----12-----10------|x2
A|-8(x8)-10(x8)-7(x8)-12(x4)-10(x4)--|
D|-8-----10-----7-----12-----10------|

Repetir Riff 3
Repetir Estribillo x2

Riff 4
E|---------------------------------------------|
B|---------6-6-6-6------------9--9--9--9-------|
G|---------9-9-9-9------------11-11-11-11------|
D|-0-0-0-0---------x4-0-0-0-0--------------x4--|x2
A|-0-0-0-0------------0-0-0-0------------------|
D|-0-0-0-0------------0-0-0-0------------------|

Repetir Estribillo x3

Final:
E|-------------------|
B|-------------------|
G|-------------------|
D|-0---------------0-|
A|-0(dejar sonar)--0-|
D|-0---------------0-|


Related for The End Of Me - Evitable Realidad tab