Guitaretab - guitar tabs
Song name
# A B C D E F G H I J K L M N O P Q R S T U V W X Y Z

Misc Unsigned Bands - Dead End Road - Sin City tab

                           Dead End Road
                             Sin City

         This song is made famous from Tony Hawk's Underground 2
                                               |---x---|
       This is really hard to tab cause of the |---x---|  on the picking
                                               |---x---|
 
     Guitar 1 INTRO
     |-----------------------------------------------------|
     |-----------------------------------------------------|
     |-----------------------------------------------------|X2-----|
     |-----------------------------------------------------|       |
     |-7-7-7-7-11-11-11-11-12-12-12-12-14-12-11-7----------|       |X2
     |-----------------------------------------------------|       |
                                                                   |
     |-----------------------------------------------------|       |
     |-----------------------------------------------------|--------
     |-----------------------------------------------------|X2
     |-----------------------------------------------------|
     |-5-5-5-5-9-9-9-9-10-10-10-10-12-10-9-5---------------|
     |-----------------------------------------------------|

     Guitar 2   Intro    comes in after guitar 1 plays it's part once
     |-----------------------------------------------------|       
     |-5-5-5-5-9-9-9-9-10-10-10-10-12-10-9-5---------------|
     |-----------------------------------------------------|
     |-----------------------------------------------------|X2
     |-----------------------------------------------------|
     |-----------------------------------------------------|

     |-----------------------------------------------------|       
     |-3-3-3-3-7-7-7-7-8-8-8-8--10-8-7-3-------------------|
     |-----------------------------------------------------|
     |-----------------------------------------------------|X2
     |-----------------------------------------------------|
     |-----------------------------------------------------|


     Pre-verse thingy
     |---0---------------------------------------------------|     
     |---0---------------------------------------------------|
     |---0--x-x-x-5-x-x--x-x-x-7-x-x--x-x-x---x---x----------|X2
     |-7----x-x-x-5-x-x--x-x-x-7-x-x--x-x-x-5-x-5-x-5-5------|
     |-7----x-x-x-3-x-x--x-x-x-5-x-x--x-x-x-5-x-5-x-5-5------|
     |-5------------------------------------3---3---3-3------|

     sorry but I can't figure the solo out guys :(  so so sorry

     |---------------------------------|       
     |---------------------------------|
     |------------------x---x----------|   this is weird
     |--7~~7-7-7-7-7--5-x-5-x-5-5-5----|X4  when you 
     |--7~~7-7-7-7-7--5-x-5-x-5-5-5----|   look at it 
     |--5~~5-5-5-5-5--3---3---3-3-3----|    but it's right

    
     Chorus     play the 0's while holding the chord
     |--------------0---------------------------------------|   bv = bend 
     |----------------0-------------------------------------|   than vibrato
     |------------------0-----------------------------------|
     |-3-3-5-5-7~~~~~~~~~--3-3-5-5-7~~~~----5bv-------------|
     |-3-3-5-5-7~~~~~~~~~--3-3-5-5-7~~~~--------------------|
     |-1-1-3-3-5~~~~~~~~~--1-1-3-3-5~~~~--------------------|

     Verse
     |---------------------------------|       
     |---------------------------------|
     |------------------x---x----------|   
     |--7~~~~~~~~~~~--5-x-5-x-5-5-5----|X4   
     |--7~~~~~~~~~~~--5-x-5-x-5-5-5----|   
     |--5~~~~~~~~~~~--3---3---3-3-3----|   

     
     Chorus 2???
     |---0---------------------------------------------------|     
     |---0---------------------------------------------------|
     |---0--x-x-x-5-x-x--x-x-x-7-x-x--x-x-x---x---x----------|X2
     |-7----x-x-x-5-x-x--x-x-x-7-x-x--x-x-x-5-x-5-x-5-5------|
     |-7----x-x-x-3-x-x--x-x-x-5-x-x--x-x-x-5-x-5-x-5-5------|
     |-5------------------------------------3---3---3-3------|


     
     Verse
     |---------------------------------|       
     |---------------------------------|
     |------------------x---x----------|   
     |--7~~~~~~~~~~~--5-x-5-x-5-5-5----|X4   
     |--7~~~~~~~~~~~--5-x-5-x-5-5-5----|   
     |--5~~~~~~~~~~~--3---3---3-3-3----|   

[ Tab from: http://www.guitaretab.com/m/misc-unsigned-bands/181332.html ]
     Chorus     play the 0's while holding the chord
     |--------------0---------------------------------------|   bv = bend 
     |----------------0-------------------------------------|   than vibrato
     |------------------0-----------------------------------|
     |-3-3-5-5-7~~~~~~~~~--3-3-5-5-7~~~~----5bv-------------|
     |-3-3-5-5-7~~~~~~~~~--3-3-5-5-7~~~~--------------------|
     |-1-1-3-3-5~~~~~~~~~--1-1-3-3-5~~~~--------------------|


     Verse
     |---------------------------------| 
     |---------------------------------|
     |------------------x---x----------|   
     |--7~~~~~~~~~~~--5-x-5-x-5-5-5----|X4   
     |--7~~~~~~~~~~~--5-x-5-x-5-5-5----|   
     |--5~~~~~~~~~~~--3---3---3-3-3----|   

     
     Chorus 2???
     |---0---------------------------------------------------|     
     |---0---------------------------------------------------|
     |---0--x-x-x-5-x-x--x-x-x-7-x-x--x-x-x---x---x----------|X2
     |-7----x-x-x-5-x-x--x-x-x-7-x-x--x-x-x-5-x-5-x-5-5------|
     |-7----x-x-x-3-x-x--x-x-x-5-x-x--x-x-x-5-x-5-x-5-5------|
     |-5------------------------------------3---3---3-3------|


     Play during solo
     |---------------------------------|  
     |---------------------------------|
     |------------------x---x----------|  
     |--7~~7-7-7-7-7--5-x-5-x-5-5-5----|X2 
     |--7~~7-7-7-7-7--5-x-5-x-5-5-5----|    
     |--5~~5-5-5-5-5--3---3---3-3-3----|   

     Keeps playing but no solo
     |---------------------------------|
     |---------------------------------|
     |------------------x---x----------|  
     |--7~~7-7-7-7-7--5-x-5-x-5-5-5----|X4
     |--7~~7-7-7-7-7--5-x-5-x-5-5-5----|    
     |--5~~5-5-5-5-5--3---3---3-3-3----|    

     Chorus    play once while solo is over it
     |--------------0---------------------------------------|   
     |----------------0-------------------------------------|   
     |------------------0-----------------------------------|
     |-3-3-5-5-7~~~~~~~~~--3-3-5-5-7~~~~--------------------|
     |-3-3-5-5-7~~~~~~~~~--3-3-5-5-7~~~~--------------------|
     |-1-1-3-3-5~~~~~~~~~--1-1-3-3-5~~~~--------------------|

     Chorus 2???
     |---0---------------------------------------------------|     
     |---0---------------------------------------------------|
     |---0--x-x-x-5-x-x--x-x-x-7-x-x--x-x-x---x---x----------|X2
     |-7----x-x-x-5-x-x--x-x-x-7-x-x--x-x-x-5-x-5-x-5-5------|
     |-7----x-x-x-3-x-x--x-x-x-5-x-x--x-x-x-5-x-5-x-5-5------|
     |-5------------------------------------3---3---3-3------|

     |---------------------------------|  
     |---------------------------------|
     |------------------x---x----------|  
     |--7~~7-7-7-7-7--5-x-5-x-5-5-5----|X2
     |--7~~7-7-7-7-7--5-x-5-x-5-5-5----|    
     |--5~~5-5-5-5-5--3---3---3-3-3----| 

     

Guitar 1 OUTRO
     |-----------------------------------------------------|
     |-----------------------------------------------------|
     |-----------------------------------------------------|X2-----|
     |-----------------------------------------------------|       |
     |-7-7-7-7-11-11-11-11-12-12-12-12-14-12-11-7----------|       |X2
     |-----------------------------------------------------|       |
                                                                   |
     |-----------------------------------------------------|       |
     |-----------------------------------------------------|--------
     |-----------------------------------------------------|X2
     |-----------------------------------------------------|
     |-5-5-5-5-9-9-9-9-10-10-10-10-12-10-9-5---------------|
     |-----------------------------------------------------|

     Guitar 2   OUTRO
     |-----------------------------------------------------|       
     |-5-5-5-5-9-9-9-9-10-10-10-10-12-10-9-5---------------|
     |-----------------------------------------------------|
     |-----------------------------------------------------|X2---|
     |-----------------------------------------------------|     |
     |-----------------------------------------------------|     |X2
                                                                 |
     |-----------------------------------------------------|-----|
     |-3-3-3-3-7-7-7-7-8-8-8-8--10-8-7-3-------------------|
     |-----------------------------------------------------|
     |-----------------------------------------------------|X2
     |-----------------------------------------------------|
     |-----------------------------------------------------|


     That's it!!!!!!!!! it was hard VERY hard but I did it



Related for Dead End Road - Sin City tab
Advertisement will be closed in 10 seconds