Song name
# A B C D E F G H I J K L M N O P Q R S T U V W X Y Z

Misc Unsigned Bands - Eddy Blohm - False Hopes tab

well, this is the tab for whoever is interested

Intro/Verse Riff
E-------------------------------------------------|
B-3-------2--2---3--------------------------------|
G-2---2---2--2---2----2--2--2--2--2--2--2--2------| (X2)
D-0---0---2--2---0----0--0--0--0--0--0--0--0------|
A-----0---0--0------------------------------------|
D-------------------------------------------------|
                    PM................................................

Every 2 of them you do this variation.
E-5--------------5-----------------------------------|
B-3-------2--2---3-----------------------------------|
G-2---2---2--2---2----2--2--2--2--2--2--2--2---------| (X1)
D-0---0---2--2---0----0--0--0--0--0--0--0--0---------|
A-----0---0--0---------------------------------------|
D----------------------------------------------------|
                     PM.................................................

To Go into the chorus it's this
E----------------------------------------------------|
B-3-------2--2---------------------------------------|
G-2---2---2--2---7~----------------------------------|
D-0---0---2--2---7~----------------------------------|
A-----0---0--0---5~----------------------------------|
D----------------------------------------------------|

Chorus Riff
E-------------------------------------------------------------------|
B-------------------------------------------------------------------|
G--7-7-7-7-7-7-7-7---------------------------------5-5-5-5-5-5-5-5--| (X4)
D--7-7-7-7-7-7-7-7-8-8-8-8-8-8-8-8-3-3-3-3-3-3-3-3-5-5-5-5-5-5-5-5--|
A--5-5-5-5-5-5-5-5-8-8-8-8-8-8-8-8-3-3-3-3-3-3-3-3-3-3-3-3-3-3-3-3--|
D------------------8-8-8-8-8-8-8-8-3-3-3-3-3-3-3-3------------------|

Solo:
Guitar 2
E-------------------------------------------------------------------|
B-------------------------------------------------------------------|
G--7-7-7-7-7-7-7-7---------------------------------5-5-5-5-5-5-5-5--| (X3)
D--7-7-7-7-7-7-7-7-8-8-8-8-8-8-8-8-3-3-3-3-3-3-3-3-5-5-5-5-5-5-5-5--|
A--5-5-5-5-5-5-5-5-8-8-8-8-8-8-8-8-3-3-3-3-3-3-3-3-3-3-3-3-3-3-3-3--|
D------------------8-8-8-8-8-8-8-8-3-3-3-3-3-3-3-3------------------|

Guitar 1
E-----------------------------------------------------------------------|
B-----------------------------------------------------------------------|
G---19-19-19-19-19-19-19-19-14-14-14-14-14-14-14-14---------------------|
D---x--x--x--x--x--x--x--x--x--x--x--x--x--x--x--x----------------------|
A---17-17-17-17-17-17-17-17-12-12-12-12-12-12-12-12---------------------|

E----------------------------------------------------------------------|
B----------------------------------------------------------------------|
G---10-10-10-10-10-10-10-10-17-17-17-17-17-17-17-17--------------------|
D---x--x--x--x--x--x--x--x--x--x--x--x--x--x--x--x---------------------|
A---8--8--8--8--8--8--8--8--15-15-15-15-15-15-15-15--------------------|
D----------------------------------------------------------------------|

E-----------------------------------------------------------------------|
B-----------------------------------------------------------------------|
G--19^--19^--19^19^19^19^-19-17-----------------------------------------|
D-------------------------------19-17--19-17-19-19^--19^--19^19^19^19^--|
A-----------------------------------------------------------------------|
D-----------------------------------------------------------------------|

E---------------------------------------------------------------------------|
B----------------------------------------------------20^--20^--20^20^20^20^-|
G-----------------------19^--19^--19^19^19^19^-19-17------------------------|
D-19-17---------------------------------------------------------------------|
A-------19-17--19/17/19-----------------------------------------------------|
D---------------------------------------------------------------------------|

E--------20--20^(pinched)------------------|
B--20-17-----------------------------------|
G------------------------------------------|
D------------------------------------------|
A------------------------------------------|
D------------------------------------------|

Song structure
Intro
Verse
Chorus
Verse 2
Chorus
Guitar Solo
Chorus (palm muted)
Outtro
Tap to rate this tab
 
# A B C D E F G H I J K L M N O P Q R S T U V W X Y Z