Song name
# A B C D E F G H I J K L M N O P Q R S T U V W X Y Z

Misc Unsigned Bands - Valley Drive - Black Waters Hide White Fish tab

Intro
|-----0-------0-------0-------0----|
|----3-3-----3-3-----3-3-----3-----|
|---0---0---0---0---0---0---0------|
|--4-----4-4-----4-4-----4-4-------|
|-5-------3-------2----------------|
|-------------------------3--------|

Verses (A)

|-----0------0------0------0-2----|        |-------|
|----3------3------3------3-3-3---| bridge |-2h3p2-|
|---0------0------0------0--------|   to   |-------|
|--4------4------4------4---------|  Pre-  |-------|
|-5------3------2-----------------| Chorus |-------|
|----------------------3----------|        |-------|

Pre-chorus (B)

|------------------------------------------|        |-----------|
|------------------------------------------| bridge |-----------|
|------------------------------------------|   to   |-7p7-------|
|-5-5-5-5-5-7-7-7-7-7-9-9-9-9-9-10-9-7-9-7-| chorus |----9p7----|
|-3-3-3-3-3-5-5-5-5-5-7-7-7-7-7------------|        |-------9---|
|------------------------------------------|        |--------10-|

Chorus (C)

|-----------------------------------| Bridge |-------|
|-----------------------------------|   To   |-------|
|-----------------------------------| Verse  |-------|
|-9------5------4------5-----7------|        |-4-5-4-|
|-7-(x8)-7-(x8)-5-(x8)-3-(x4)5-(x4)-|        |-2-3-5-|
|-----------------------------------|        |-------|

Order Played:
(bridge before transitioning to next different segment)
Intro   2A   2B   C  4A   2B   2C   3A

100% Accurate because I wrote it...Good Luck
~Valley Drive
(www.myspace.com/valleydriveband)
(www.valleydrive.webs.com)
.aP
Tap to rate this tab
# A B C D E F G H I J K L M N O P Q R S T U V W X Y Z