Song name
# A B C D E F G H I J K L M N O P Q R S T U V W X Y Z

Misc Unsigned Bands - 3 Nailz - Take Me Away tab

Help us improve GuitareTab! Take a short survey!
                    Intro
(use light distortion the first 2 times of the intro then use heavy distortion 
through the rest of the song)
E|-------------------------------------------------------------|
B|-------------------------------------------------------------|
G|-------------------------------3-5---------------------------|
D|5-5-5-3--5-5-5-5-3--5-5-5-5-3--3-5---------------------------|  X4
A|5-5-5-3--5-5-5-5-3--5-5-5-5-3--1-3---------------------------|
D|5-5-5-3--5-5-5-5-3--5-5-5-5-3--------------------------------|


                The fourth time of the intro do this
                              (Verse)
E|-------------------------------------------------------------|
B|-------------------------------------------------------------|
G|-------------------------------3-5-7~~~~~--------------------|
D|5-5-5-3--5-5-5-5-3--5-5-5-5-3--3-5-7~~~~~--------------------| X3
A|5-5-5-3--5-5-5-5-3--5-5-5-5-3--1-3-5~~~~~--------------------|
D|5-5-5-3--5-5-5-5-3--5-5-5-5-3--------------------------------|

               On the Third time of the Verse do this
                             (Bridge) 

E|-------------------------------------------------------------|
B|-------------------------------------------------------------|
G|-------------------------------3-5-7~~~~~-7--3--5-5-5--------|
D|5-5-5-3--5-5-5-5-3--5-5-5-5-3--3-5-7~~~~~-7--3--5-5-5--------| X1
A|5-5-5-3--5-5-5-5-3--5-5-5-5-3--1-3-5~~~~~-5--1--3-3-3--------|
D|5-5-5-3--5-5-5-5-3--5-5-5-5-3--------------------------------|

                           (Chorus)

E|-------------------------------------------------------------|
B|-------------------------------------------------------------|
G|-------------------------------------------------------------|
D|-0~~~~0~~~~3~~~~3~~~~0~~~~0~~~~3~~~~5-5-5--------------------| X1
A|-0~~~~0~~~~3~~~~3~~~~0~~~~0~~~~3~~~~5-5-5--------------------|
D|-0~~~~0~~~~3~~~~3~~~~0~~~~0~~~~3~~~~5-5-5--------------------|


                   
                    I will have the solo soon
Intro  X4
Verse  X3
Bridge X1
Chorus X1
Verse  X3
Bridge X1
Chorus X1
Solo
Chorus X3
Related for 3 Nailz - Take Me Away tab