Song name
# A B C D E F G H I J K L M N O P Q R S T U V W X Y Z

Misc Unsigned Bands - Flamin Riot - Moneys The Life tab

E|----------------------------------------------------------------|
B|----------------------------------------------------------------|
G|---0-2-0-2-0-2-0-2-3-2------------------------------------------|    X2
D|----------------------------------------------------------------|
A|----------------------------------------------------------------|
E|----------------------------------------------------------------|

E|----------------------------------------------------------------|
B|---0-2-0-2-0-2-0-2-3-2------------------------------------------|
G|---0-2-0-2-0-2-0-2-3-2------------------------------------------|    X4
D|---0-2-0-2-0-2-0-2-3-2------------------------------------------|
A|----------------------------------------------------------------|
E|----------------------------------------------------------------|

E|--5~---0-3-0~----0-0-0-3---0~-0-0-0-3---0-0-0-------------------|
B|--5~---0-3-0~----0-0-0-3-3-0~-0-0-0-3-3-0-0-0-------------------|
G|-------------------------3------------3-------------------------|    X2
D|----------------------------------------------------------------|
A|----------------------------------------------------------------|
E|----------------------------------------------------------------|

E|--4-4-0~---2-2-4----0-0-0-0-0-4---------------------------------|
B|--4-4-0~---2-2-4~---0-0-0-0-0-4-3-4-----------------------------|
G|--------------------------------3-4-----------------------------|    X3
D|----------------------------------------------------------------|
A|----------------------------------------------------------------|
E|----------------------------------------------------------------|

AT END OF 3RD TIME PLAY E|--00-3-|
                        B|--00-3-|

E|----------------------------------------------------------------|
B|---0-2-0-2-0-2-0-2-3-2------------------------------------------|
G|---0-2-0-2-0-2-0-2-3-2------------------------------------------|    X4
D|---0-2-0-2-0-2-0-2-3-2------------------------------------------|
A|----------------------------------------------------------------|
E|----------------------------------------------------------------|

E|--5~---0-3-0~----0-0-0-3---0~-0-0-0-3---0-0-0-------------------|
B|--5~---0-3-0~----0-0-0-3-3-0~-0-0-0-3-3-0-0-0-------------------|
G|-------------------------3------------3-------------------------|    X2
D|----------------------------------------------------------------|
A|----------------------------------------------------------------|
E|----------------------------------------------------------------|

E|--4-4-0~---2-2-4----0-0-0-0-0-4---------------------------------|
B|--4-4-0~---2-2-4~---0-0-0-0-0-4-3-4-----------------------------|
G|--------------------------------3-4-----------------------------|    X3
D|----------------------------------------------------------------|
A|----------------------------------------------------------------|
E|----------------------------------------------------------------|

AT END OF 3RD TIME PLAY E|--00-3-|
                        B|--00-3-|


BREAKDOWN - NO MUSICC - JUST DRUMS

E|--4-4-0~---2-2-4----0-0-0-0-0-4---------------------------------|
B|--4-4-0~---2-2-4~---0-0-0-0-0-4-3-4-----------------------------|
G|--------------------------------3-4-----------------------------|    X3
D|----------------------------------------------------------------|
A|----------------------------------------------------------------|
E|----------------------------------------------------------------|

AT END OF 3RD TIME PLAY E|--00-3~
                        B|--00-3~                                        THE ABOVE X2
Tap to rate this tab
# A B C D E F G H I J K L M N O P Q R S T U V W X Y Z