Guitaretab - guitar tabs
Song name
# A B C D E F G H I J K L M N O P Q R S T U V W X Y Z

Misc Unsigned Bands - My Heart To Fear - The Weeping Demon tab

        The Weeping demon. - D-A-D-G-B-E        My Heart to Fear
	Intro-
-------------------------------------------------------------------|
-------------------------------------------------------------------|
-------------------------------------------------------------------|
--0--000-0-7-0-0-00-5-0-0-7-0--000-0-7-00-5(h)7(p)5-3(h)5(p)-------|
--0--000-0-5-0-0-00-7-0-0-8-0--000-0-5-00-5(h)7(p)5-3(h)5(p)-------|
--0--000-0---0-0-00---0-0---0--000-0---00-5(h)7(p)5-3(h)5(p)-3-----|(*~)
  .  ... .   . . ..   . .   .  ... .   ..
[ Tab from: http://www.guitaretab.com/m/misc-unsigned-bands/181468.html ]
-------------------------------------------------------------------|
-----------2-------------------------------------------------------|
-----------3--------2----------------------------------------------|
--0--000-0---0-0-00-3-0-0-5-0--000-0-5-00-5(h)7(p)5-3(h)5(p)-------|
--0--000-0---0-0-00---0-0-3-0--000-0-7-00-5(h)7(p)5-3(h)5(p)-------|
--0--000-0---0-0-00---0-0---0--000-0---00-5(h)7(p)5-3(h)5(p)-3-----|(*~)
  .  ... .   . . ..   . .   .  ... .   ..
	Verse-
-------------------------------------------------------------------|
-------------------------------------------------------------------|
-------------------------------------------------------------------|
--0--000-0-3-0-0-00-5-0-0-87-0--000-0-3-0-0---------------(8*~)----|
--0--000-0-3-0-0-00-5-0-0-87-0--000-0-3-0-0------8-10-8/7)---------|
--0--000-0-3-0-0-00-5-0-0-87-0--000-0-3-0-0-8-10-------------------|
  .  ... .   . . ..   . .    .  ... .   . .
	Chorus-                         first half       Second Half
------------------------------------|---------------|----------------|
------------------------------------|--------------6|----------------|
------------------------------------|---------(5)-8-|-7--5--2--------|
888888-888888/33-0-00-----3-00-----5|-----3-7-------|-7--5--0--------|
888888-888888/33-0-00-3-5---00-3-5--|-3-5-----------|-5--3--0--------|
888888-888888/33-0-00-------00------|---------------|----------------|
                   ..       ..                 .      6x 4x 5x
	Break Down-
------------------------------------       |------|
--------------------------------10--       |--8~--|
--------------------------------x---       |--x~--|
--000-000-000-00-000-000-00-00--13--ReapetÖ|--11~-|
--000-000-000-00-000-000-00-00------       |------|
--000-000-000-00-000-000-00-00------       |------|
  *** *** *** ** *** *** ** **
Bridge- pt 1-
---------------------------------------------------------------------|
---------------------------------------------------------------------|
--10-5-7-------------------------------------------------------------|
--10-5-7-------------------------------------------------------------|
--10-5-7-------------------------------------------------------------|
---------------------------------------------------------------------|

	Bridge- pt 2-              First Half               second Half
---------------------------------------------------|-------------------|
---------------------------------------------------|-------------------|
---------------------------------------------------|-7-5-2-------------|
888888----888888/33-0-00-----3-00-----5-00-----3-7-|-7-5-0-------------|
888888----888888/33-0-00-3-5---00-3-5---00-3-5-----|-5-3-0-------------|
888888----888888/33-0-00-------00-------00---------|-------------------|
      pause           ..       ..


Solo-                                  10ís
---------------------------------------------------------------------|
---------------------------------------------------------------------|
---------------------------------------------------------------------|
---------------------------------------------------------------------|
--888-7-8888-7-8888-7-88888-7-8/555555555/10101010/8-7-8888-7-888-7--|
---------------------------------------------------------------------|


Solo-                               10ís
---------------------------------------------------------------------|
---------------------------------------------------------------------|
---------------------------------------1010101010/99999/77777/55555--|
---------------777777-8-7-55555-10-8-7-------------------------------|
8888-7-888-7-8-------------------------------------------------------|
---------------------------------------------------------------------|

  Solo-12ís     10ís    15ís              10ís
--------------------------------------------------------------------|
--------------------------------------------------------------------|
-1212121212/10101010/14141414/12-10-9-1010101010/99999/77777/55555--|
--------------------------------------------------------------------|
--------------------------------------------------------------------|
--------------------------------------------------------------------|

	Solo-
--------------------------------------------------------------------|
--------------------------------------------------------------------|
-10-10-10-10-10-10-10-10-7-7-7-7-7-5-3-3-0~-------------------------|
-------------------------8-8-8-8-8-------0~-------------------------|
-----------------------------------------0~-------------------------|
Related for My Heart To Fear - The Weeping Demon tab