Song name
# A B C D E F G H I J K L M N O P Q R S T U V W X Y Z

Misc Unsigned Bands - Jon Cook - Living Without Breathin tab

Standard tuning.
Chords used C G Em7 C

|------------3-------------------0-------------------|
|--3-------------------3-----------------------------|
|-----0---0-----0---0-----0---0----0---0-------------|
|-------2---------2---------2--------2---------------|
|--3-------------------3-----------------------------|
|----------------------------------------------------|

|------------3-------------------0-------------------|
|--3-------------------3-----------------------------|
|-----0---0-----0---0-----0---0----0---0-------------|
|----------------------------------------------------|
|-------2---------2----2----2--------2---------------|
|--3-----------------------------------3-------------|

|------------3-------------------0-----3-------------|
|--3-------------------3---------------3-------------|
|-----0---0-----0---0-----0---0----0---0-------------|
|-------2---------2---------2--------2-2-------------|
|----------------------2----2--------2-2-------------|
|--------------------------------------0-------------|

|------------3-------------------0-------------------|
|--3-------------------3-----------------------------|
|-----0---0-----0---0-----0---0----0---0-------------|
|-------2---------2---------2--------2---------------|
|--3-------------------3-----------------------------|
|----------------------------------------------------|
Tap to rate this tab
# A B C D E F G H I J K L M N O P Q R S T U V W X Y Z