Song name
# A B C D E F G H I J K L M N O P Q R S T U V W X Y Z

Misc Unsigned Bands - Debbie Deb - When I Hear Music tab

Help us improve GuitareTab! Take a short survey!
Debbie Deb
When I hear music

Standard tuning


e----------9----------------------9----|
b----10-------------------10-----------|
g-11----11----11------11------11-------|
d--------------------------------------|
a--------------------------------------|
e--------------------------------------|

e----------9--------10------9-------------|
b----10---------------10--10--------------|
g-11----11----11--------11----------------|
d-----------------------------------------|
a-----------------------------------------|
e-----------------------------------------|
Related for Debbie Deb - When I Hear Music tab