Song name
# A B C D E F G H I J K L M N O P Q R S T U V W X Y Z

Misc Unsigned Bands - Sweet Blood - Tear The Roof Off tab

-------------------------------------------------------------------------------
			     Tear The Roof Off - Sweet Blood
-------------------------------------------------------------------------------
Tabbed by: Chris Burns
Email: xXSynysterGatesXx@hotmail.com

Tuning:Standard

Not very technical, just the chords. Timing and other stuff isnt hard to figure 
me and i'll send back the song, since no one knows it.

Intro/verse
e|-----------------------------------------------------|
B|-----------------------------------------------------|
G|-4444444--2222222------------------------------------|
D|-4444444--2222222--2222222---------------------------|
A|-2222222--0000000--2222222---------------------------|
E|-------------------0000000---------------------------|

transition to verse
e|-----------------------------------------------------------------|
B|-----------------------------------------------------------------|
G|-2222222---------------------------------------------------------|
D|-2222222--22--4--------------------------------------------------|
A|-0000000--22--4--------------------------------------------------|
E|----------00--2--------------------------------------------------|

Chorus
e|-------------------------------------------------------------|
B|-------------------------------------------------------------|
G|-444--222----------------------------------------------------|
D|-444--222--222--555--777-------------------------------------|
A|-222--000--222--555--777-------------------------------------|
E|-----------000--333--555-------------------------------------|

Outro
e|--------------------------|
B|--------------------------|
G|--------------------------|
D|-5555555--7777777---------|
A|-5555555--7777777---------|
E|-3333333--5555555---------| x3

e|------------------------------|
B|------------------------------|
G|------------------------------|
D|-99--x99--x99--x99--x99----99-|
A|-99--x99--x99--x99--x99----99-|
E|-77--x77--x77--x77--x77----77-|


| /  slide up
| \  slide down
| h  hammer-on
| p  pull-off
| ~  vibrato
| +  harmonic
| x  Mute note
===============================================================================
Tap to rate this tab
# A B C D E F G H I J K L M N O P Q R S T U V W X Y Z