Song name
# A B C D E F G H I J K L M N O P Q R S T U V W X Y Z

Misc Unsigned Bands - Caroline Smith - Tying My Shoes tab

Highlighted       Show chord diagrams
----------------------------------------------------------------------------
    tying my shoes - Caroline smith and the good night sleeps
----------------------------------------------------------------------------
Tabbed by:johnsin
Email:

Tuning:standard


e|-3-------3--------------------3------------------------------------------|
B|-3-------3--------------------3------------------------------------------|
G|-0-------0--------------------0------------------------------------------|
D|-0-------0---2------2-----2---0------------------------------------------|
A|-2-------2---2------2-----2---2------------------------------------------|
E|-3-------3-2-0------0-----0-2-3------------------------------------------|



G                                Em

you say that im never too keen to...  leave this place

G                                Em

you say that you never wanted to...   hit me in the face

C                       D

more than right now ever before,

               

                       e|3
                       B|3
                       G|0
                       D|0
                       A|0
                 G     E|2      Em

but cant you see that I'm only love        repeat

                   e|3
                   B|3
                   G|0
                   D|0
                   A|0
 C  D        G     E|2   Em







| /  slide up
| \  slide down
| h  hammer-on
| p  pull-off
| ~  vibrato
| +  harmonic
| x  Mute note
============================================================================
Tap to rate this tab
# A B C D E F G H I J K L M N O P Q R S T U V W X Y Z