Song name
# A B C D E F G H I J K L M N O P Q R S T U V W X Y Z

Misc Unsigned Bands - Violet Sunshine - Angels tab

Artist: Violent Sunshine
Song: Angels
Type: Guitar Tablature
Tuning: Standard

Palm Mute - x
Hammer - h

Intro
--------3--3--|--------3--3--|--------3--3--|-------3--2-2h3
------3----3--|------3----3--|------3----3--|-----3----3-3-
----0------0--|----0------0--|----0------0--|---2------2-2-
-----------0--|-----------2--|-2---------2--|-0--------0-0-
-----------2--|-2---------2--|-----------0--|----------0-0-
-3---------3--|-----------0--|-----------0--|----------0-0-

--------3--3--|--------3--3--|--------3--3--|-------3--2-2h3
------3----3--|------3----3--|------3----3--|-----3----3-3-
----0------0--|----0------0--|----0------0--|---2------2-2-
-----------0--|-----------2--|-2---------2--|-0--------0-0-
-----------2--|-2---------2--|-----------0--|----------0-0-
-3---------3--|-----------0--|-----------0--|----------0-0-

Verse
-3-3--x--3--x-|-3-3-x--2-2h3-|-3-3-x--3--x--|-3-3-x--2-2h3|
-3----x--3--x-|-3---x--3-3---|-3---x--3--x--|-3---x--3-3--|
-0----x--0--x-|-0---x--2-2---|-0---x--0--x--|-0---x--2-2--|
-0----x--2--x-|-2---x--0-0---|-0---x--2--x--|-2---x--0-0--|
-2----x--2--x-|-0---x--0-0---|-2---x--2--x--|-0---x--0-0--|
-3----x--0--x-|-0---x--0-0---|-3---x--0--x--|-0---x--0-0--|

-3-3--x--3--x-|-3-3-x--2-2h3-|-3-3-x--3--x--|-3-3-x--2-2h3|
-3----x--3--x-|-3---x--3-3---|-3---x--3--x--|-3---x--3-3--|
-0----x--0--x-|-0---x--2-2---|-0---x--0--x--|-0---x--2-2--|
-0----x--2--x-|-2---x--0-0---|-0---x--2--x--|-2---x--0-0--|
-2----x--2--x-|-0---x--0-0---|-2---x--2--x--|-0---x--0-0--|
-3----x--0--x-|-0---x--0-0---|-3---x--0--x--|-0---x--0-0--|

Pre Chorus:

-3---3---2---3|
-3---3---3---3|
-0---0---2---0|
-0---2---0---2|
-2---0---0---3|
-3---0---0---0|
Tap to rate this tab
# A B C D E F G H I J K L M N O P Q R S T U V W X Y Z